Guitaretab - guitar tabs
Song name
# A B C D E F G H I J K L M N O P Q R S T U V W X Y Z

Misc Unsigned Bands - Falling From Heaven - Untitled tab

well, it's not really the WHOLE song, just the intro and the first verse...and the chorus

INTRO
E---------------------------------------------------------------------|
B---------------------------------------------------------------------|
G---------------------------------------------------------------------|
D------------------------------------------7-5-0----------------------|
A-0-0-3-0-0-5-0-0-7-0-0-5-0-0-3-0-0-5-0-0--------3----0-0-3-0-0-5-0-0-|
D-----------------------------------------------P.H.------------------|

E--------------------------------|
B--------------------------------|
G--------------------------------|
D--------------------------------|
A-7-0-0-5-0-0-3-0-0-5-0-0-7-5-3-0|
D--------------------------------|

FIRST VERSE
E--------------------------------------------------------------------|
B--------------------------------------------------------------------|
G--------------------------------------------------------------------|
D--------------------------------------------------------------------|
A-12\0--0-0-3-0-0-5-0-0-7-0-0-5-0-0-3-0-0-5-0-0--7-5-0---------------|
D-12\0--0-0-3-0-0-5-0-0-7-0-0-5-0-0-3-0-0-5-0-0-------3--------------|
                                                     P.H.
[ Tab from: http://www.guitaretab.com/m/misc-unsigned-bands/87423.html ]
E-----------------------------------------------------|
B-----------------------------------------------------|
G-----------------------------------------------------|
D-----------------------------------------------------|
A-----0-0-3-0-0-5-0-0-7-0-0-5-0-0-3-0-0-5-0-0-7-5-3-0-|
D-----0-0-3-0-0-5-0-0-7-0-0-5-0-0-3-0-0-5-0-0-7-5-3-0-|

CHORUS
E-------------------------------------------------------------------------|
B-------------------------------------------------------------------------|
G-------------------------------------------------------------------------|
D-------------------------------------------------------------------------|
A-0-0-0-0-0-0-0-0-3--0-0-0-0-0-0-0-0-6-5-6-5--0-0-0-0-0-0-0-0-------------|
D-0-0-0-0-0-0-0-0-3--0-0-0-0-0-0-0-0-6-5-6-5--0-0-0-0-0-0-0-0-3-----------|
                                                             P.H.

E-------------------------------------------------------------------------|
B-------------------------------------------------------------------------|
G-------------------------------------------------------------------------|
D-------------------------------------------------------------------------|
A-0-0-0-0-0-0-0-0-5p0-4p0-3p0-1p0-----------------------------------------|
D-0-0-0-0-0-0-0-0---------------------------------------------------------|

INTRO : PLAY TWICE
FIRST VERSE: PLAY 4 TIMES
CHORUS: PLAY 3 TIMES
Related for Falling From Heaven - Untitled tab