Song name
# A B C D E F G H I J K L M N O P Q R S T U V W X Y Z

Misc Unsigned Bands - Red Day - Zara tab

Help us improve GuitareTab! Take a short survey!
Title: Zara
Artist: Red Day
Album: En Resa I Jihde
Track Number: 10
Tuning: Normal (E A D G B E)

Intro: (I don't know what strange effect they're using, but it sounds good with Tremlo)

|------------------------------|
|------------------------------|
|------------------------------|
|--8~---5~-----10~---3~---9-9--|
|--8~---5~-----10~---3~---9-9--|
|--6~---3~-----8~----1~---7-7--|

Verse:

  Zaaaara.....
|----------------------------|
|----------------------------|
|---------------7------------|
|-9----7----7---7---4---3----|
|-9----7----7---5---4---3----|
|-7----5----5---x---2---1----|
            x       x   x

       Vi lekte p lekplatsen...
|--------------------------------------|
|--------------------------------------|
|-9-------------9----------7-----------|
|-9---9---8-----9----9-----7-------7---|    X2
|-7---9---8-----7----9-----5-------7---|
|-----7---6----------7-------------5---|

Chorus:

Hela natten lng...

|---------------------------|
|---------------------------|
|------------9-----------9--|
|-9----7-----9--9---7----9--|   Repeat as many times as needed
|-9----7-----7--9---7----7--|
|-7----5--------7---5-------|
       x


Then play verse and chorus again, and now for the outro.



Outro:

Zara!!

|-----------------------|
|-----------------------|
|-----------------------|
|---6--5--4--3----3-----|
|---6--5--4--3----3-----|
|---4--3--2--1----1-----|
                  x

End on

---|
---|
---|
-3-|
-3-|
-1-|



That's it! If you find something wrong, please send me an email to firstbloodman@hotmail.com! =)
Related for Red Day - Zara tab