Song name
# A B C D E F G H I J K L M N O P Q R S T U V W X Y Z

Misc Unsigned Bands - Rotten Intruders - Sa Punx tab

INTRO
|-----------------------------------|
|-----------------------------------|
|--5-----5-----5--9-----9-----9-----|
|--5-----5-----5--9-----9-----9-----|
|--3-333-3-333-3--7-777-7-777-7-----|
|-----------------------------------|
     ...   ...      ...   ...   

|----------------------------|
|----------------------------|
|----------7-----------------|
|-7-----7--7--5-----5----5---|
|-7-----7--5--5-----5----5---|
|-5-555-5-----3-333-3-33-3---|
    ...         ...   ..

|-----------------------------------|
|-----------------------------------|
|--5-----5-----5--9-----9-----9-----|
|--5-----5-----5--9-----9-----9-----|
|--3-333-3-333-3--7-777-7-777-7-----|
|-----------------------------------|
     ...   ...      ...   ...   

|-----------------|
|-----------------|
|----------7------|
|-7-----7--7--5~--|
|-7-----7--5--5~--|
|-5-555-5-----3~--|

SA PUNX!!!!!!

|---------------------|
|---------------------|
|-5-5-5-5---9-9-9-9---|
|-5-5-5-5---9-9-9-9---|
|-3-3-3-3---7-7-7-7---|
|---------------------|

|----------------------|
|----------------------|
|---------7------------|
|--7-7-7--7--5-5-5-5---|
|--7-7-7--5--5-5-5-5---|
|--5-5-5-----3-3-3-3---|



SA Punx Unite! Unite!
|-----------------------------|
|-----------------------------|
|--5-x-x----------------------|
|--5-x-x--5-x-x-----7-7-7-7---|
|--3-x-x--5-x-x--2--7-7-7-7---|
|---------3-x-x--0--5-5-5-5---|


SA Punx Fight! Fight! Fight!
|----------------------------|
|----------------------------|
|--5-x-x---------------------|
|--5-x-x--5-x-x----7-7-7-7---|
|--3-x-x--5-x-x----7-7-7-7---|
|---------3-x-x----5-5-5-5---|



www.myspace.com/rottenintruders
Tap to rate this tab
# A B C D E F G H I J K L M N O P Q R S T U V W X Y Z