Song name
# A B C D E F G H I J K L M N O P Q R S T U V W X Y Z

Misc Unsigned Bands - Dimensia - Bloody Angle tab

Band: Dimensia
Song: Bloody Angle
Tuning: Drop D (DAdGBe)
Tracking Time - 3:47
Genre: Thrash Metal with a twist Hard Rock
Symbols: h = hammer on
         p = pull off
         s = slide
         * = palm mute
         ^ = pinch harmonic


Introduction

e--------------------------------------------------------------|
B--------------------------------------------------------------|
G--------------------------------------------------------------|
D--------------------------------------------------------------|
A--------------------------------------------------------------|
D--3-0-5-0-3-0-2-0-3-0-2-0-1s333-3-0-5-0-3-0-2-0-3-0-2-0-1s333-|
   * * * * * * * * * * * *       * * * * * * * * * * * *

e-----------------------------------------------------0-------|
B-----------------------------------------------------0-------|
G-----------------------------------------------------0-------|
D------------------------------------------------3------------|
A------------------------------------------------3------------|
D--3-0-5-0-3-0-2-0-3-0-2-0-1s333-3-0-5-0-3-0-2-0-3------------|

The next part of the intro is the same pattern as the part above, just barred to create a power chord.

e--------------------------------------------------------------|
B--------------------------------------------------------------|
G--------------------------------------------------------------|
D--3-0-5-0-3-0-2-0-3-0-2-0-1s333-3-0-5-0-3-0-2-0-3-0-2-0-1s333-|
A--3-0-5-0-3-0-2-0-3-0-2-0-1s333-3-0-5-0-3-0-2-0-3-0-2-0-1s333-|
D--3-0-5-0-3-0-2-0-3-0-2-0-1s333-3-0-5-0-3-0-2-0-3-0-2-0-1s333-|

e--------------------------------------------------------------|
B--------------------------------------------------------------|
G--------------------------------------------------------------|
D--3-0-5-0-3-0-2-0-3-0-2-0-1s333-3-0-5-0-3-0-2-0-3-0-2-0-1s777-|
A--3-0-5-0-3-0-2-0-3-0-2-0-1s333-3-0-5-0-3-0-2-0-3-0-2-0-1s777-|
D--3-0-5-0-3-0-2-0-3-0-2-0-1s333-3-0-5-0-3-0-2-0-3-0-2-0-1s777-|

e--------------------------------------------------------------|
B--------------------------------------------------------------|
G--------------------------------------------------------------|
D--3-0-5-0-3-0-2-0-3-0-2-0-1s333-3-0-5-0-3-0-2-0-3-0-2-0-1s333-|
A--3-0-5-0-3-0-2-0-3-0-2-0-1s333-3-0-5-0-3-0-2-0-3-0-2-0-1s333-|
D--3-0-5-0-3-0-2-0-3-0-2-0-1s333-3-0-5-0-3-0-2-0-3-0-2-0-1s333-|

e--------------------------------------------------|
B--------------------------------------------------|
G--------------------------------------------------|
D--3-0-5-0-3-0-2-0-3-0-2-0-1s333-3-0-5-0-3-0-2-0-3-|
A--3-0-5-0-3-0-2-0-3-0-2-0-1s333-3-0-5-0-3-0-2-0-3-|
D--3-0-5-0-3-0-2-0-3-0-2-0-1s333-3-0-5-0-3-0-2-0-3-|

Go straight from that riff into this...

e-----------------------------------------------------------------|
B-----------------------------------------------------------------|
G-----------------------------------------------------------------|
D-----------------------------------------------------------------|
A---------------3-----2-----3---5---------------7-----5-----3---2-|
D-0-0-0-0-0-0-0-3-0-0-2-0-0-3-0-5-0-0-0-0-0-0-0-7-0-0-5-0-0-3-0-2-|

e----------------------------------------------------------------------------|
B----------------------------------------------------------------------------|
G----------------------------------------------------------------------------|
D---------------3-----2-----3---5---------------7-----5-----3-----2-----2333-|
A---------------3-----2-----3---5---------------7-----5-----3-----2-----2333-|
D-0-0-0-0-0-0-0-3-0-0-2-0-0-3-0-5-0-0-0-0-0-0-0-7-0-0-5-0-0-3-0-0-2-0-0-2333-|

And then back into...

e--------------------------------------------------------------|
B--------------------------------------------------------------|
G--------------------------------------------------------------|
D--3-0-5-0-3-0-2-0-3-0-2-0-1s333-3-0-5-0-3-0-2-0-3-0-2-0-1s333-|
A--3-0-5-0-3-0-2-0-3-0-2-0-1s333-3-0-5-0-3-0-2-0-3-0-2-0-1s333-|
D--3-0-5-0-3-0-2-0-3-0-2-0-1s333-3-0-5-0-3-0-2-0-3-0-2-0-1s333-|

e-------------------------------------------------------------------|
B-------------------------------------------------------------------|
G-------------------------------------------------------------------|
D--3-0-5-0-3-0-2-0-3-0-2-0-1s333-3-0-5-0-3-0-2-0-3-2-3-5----3-2-3-0-|
A--3-0-5-0-3-0-2-0-3-0-2-0-1s333-3-0-5-0-3-0-2-0-3-2-3-5----3-2-3-0-|
D--3-0-5-0-3-0-2-0-3-0-2-0-1s333-3-0-5-0-3-0-2-0-3-2-3-5----3-2-3-0-|
                                                                  *

The open palm muted D is the same open palm muted D of this Verse part...


Verse 1

e-------------------------------------|
B-------------------------------------|
G-------------------------------------|
D------3--------5--------3-2------1---|  (x6, 2 without band, and 4 with)
A--0-0-3-0--0-0-5-0--0-0-3-2--0-0-1-0-|
D--0-0-3-0--0-0-5-0--0-0-3-2--0-0-1-0-|
   *        *        *        *


Chorus

e--------------------------------------------------------|
B--------------------------------------------------------|
G-----------------------------7--7-7-777-5-2--2-2-222-5--|
D--5--5-5-555-3-0--0-0-000-3--5--5-5-555-3-0--0-0-000-3--|
A--5--5-5-555-3-0--0-0-000-3--5--5-5-555-3-0--0-0-000-3--|  (x2)
D--5--5-5-555-3-0--0-0-000-3--5--5-5-555-3-0--0-0-000-3--|


First Breakdown

e---------------------------------------------------------------------|
B---------------------------------------------------------------------|
G---------------------------------------------------------------------|
D--00-00-00-00-3--00-00-00-0-3-5-3--00-00-00-00--12^-00-00-00-0-3-5-3-|
A--00-00-00-00-3--00-00-00-0-3-5-3--00-00-00-00------00-00-00-0-3-5-3-|
D--00-00-00-00-3--00-00-00-0-3-5-3--00-00-00-00------00-00-00-0-3-5-3-|


Pre-Verse Riff

e--------------------------------|
B--------------------------------|
G--------------------------------|
D--------------------------------|
A--------------------------------|
D--3-0-5-0-3-0-2-0-3-0-2-0-1s333-|
   * * * * * * * * * * * *

e--------------------------------------------------------------|
B--------------------------------------------------------------|
G--------------------------------------------------------------|
D--3-0-5-0-3-0-2-0-3-0-2-0-1s333-3-0-5-0-3-0-2-0-3-0-2-0-1s333-|
A--3-0-5-0-3-0-2-0-3-0-2-0-1s333-3-0-5-0-3-0-2-0-3-0-2-0-1s333-|
D--3-0-5-0-3-0-2-0-3-0-2-0-1s333-3-0-5-0-3-0-2-0-3-0-2-0-1s333-|

e-------------------------------------------------------------------|
B-------------------------------------------------------------------|
G-------------------------------------------------------------------|
D--3-0-5-0-3-0-2-0-3-0-2-0-1s333-3-0-5-0-3-0-2-0-3-2-3-5----3-2-3-0-|
A--3-0-5-0-3-0-2-0-3-0-2-0-1s333-3-0-5-0-3-0-2-0-3-2-3-5----3-2-3-0-|
D--3-0-5-0-3-0-2-0-3-0-2-0-1s333-3-0-5-0-3-0-2-0-3-2-3-5----3-2-3-0-|
                                                                  *
Verse 2

e-------------------------------------|
B-------------------------------------|
G-------------------------------------|
D-------------------------------------|  (x4, all with the band)
A--0-0000--0-0000--0-0000-0-000000000-|
D--0-0000--0-0000--0-0000-0-000000000-|


Chorus

e--------------------------------------------------------|
B--------------------------------------------------------|
G-----------------------------7--7-7-777-5-2--2-2-222-5--|
D--5--5-5-555-3-0--0-0-000-3--5--5-5-555-3-0--0-0-000-3--|
A--5--5-5-555-3-0--0-0-000-3--5--5-5-555-3-0--0-0-000-3--|  (x2)
D--5--5-5-555-3-0--0-0-000-3--5--5-5-555-3-0--0-0-000-3--|


Second Breakdown

e---------------------------------------------------------------------|
B---------------------------------------------------------------------|
G---------------------------------------------------------------------|
D--00-00-00-00-3--00-00-00-0-3-5-3--00-00-00-00--12^-00-00-00-0-3-5-3-|
A--00-00-00-00-3--00-00-00-0-3-5-3--00-00-00-00------00-00-00-0-3-5-3-|
D--00-00-00-00-3--00-00-00-0-3-5-3--00-00-00-00------00-00-00-0-3-5-3-|

Repeat the breakdown tabbed above 3 times before going back into the chorus. The first 
it is played through, it is just a breakdown, but the next two times it is played, there 
a solo over it.

Solo

e------------------------------------------------------------------------|
B------------------------------------------------------------------------|
G--12b14---12-12-12-12---12p10----12p10-------10-------------------------|
D------------------------------12-------12p10----12p10----12p10-------10-|
A------------------------------------------------------12-------12p10----|
D------------------------------------------------------------------------|

Solo Cont'd

e---------------------------        ------------------------------------|
B---------------------------        ------------------------------------|
G---------------------------        ------------------------------------|
D--12p10------------------12  (x2)  --12b15-----------------------------|
A--------12p11p10s7s10h12---        ------------------------------------|
D---------------------------        ------------------------------------|


Chorus

e--------------------------------------------------------|
B--------------------------------------------------------|
G-----------------------------7--7-7-777-5-2--2-2-222-5--|
D--5--5-5-555-3-0--0-0-000-3--5--5-5-555-3-0--0-0-000-3--|
A--5--5-5-555-3-0--0-0-000-3--5--5-5-555-3-0--0-0-000-3--|  (x2)
D--5--5-5-555-3-0--0-0-000-3--5--5-5-555-3-0--0-0-000-3--|


Outro

e------------------|
B------------------|
G------------------|
D--00-00-00-0353-0-|
A--00-00-00-0353-0-|
D--00-00-00-0353-0-|


Enjoy folks
Tap to rate this tab
# A B C D E F G H I J K L M N O P Q R S T U V W X Y Z