Song name
# A B C D E F G H I J K L M N O P Q R S T U V W X Y Z

Misc Unsigned Bands - Knives And Kidneys - Arnold Will Crush You With His Bicep tab

T=TAP
(x)=PINCH HARMONIC
*=PALM MUTE

[INTRO]
D---11--11--11--11--14--14--14--14--13--13--13--13--12--12--12--12----------|
A---------------------------------------------------------------------------|
F-13--13--13--13--13--13--13--13--13--13--13--13--13--13--13--13------X2----|
C---------------------------------------------------------------------------|
G---------------------------------------------------------------------------|
C---------------------------------------------------------------------------|

D------11--11------14--14------13--13------12--12---------------------------|
A---------------------------------------------------------------------------|
F----13--13------13--13------13--13------13--13----X2-----------------------|
C 000---------000---------000---------000-----------------------------------|
G-000---------000---------000---------000-----------------------------------|
C-000---------000---------000---------000-----------------------------------|
  ***         ***         ***         ***
D-T1511T1511T1511T1511T1511T1511T1511T1511-T1514T1514T1514T1514-------------|
A---------------------------------------------------------------------------|
F---------------------------------------------------------------------------|
C---------------------------------------------------------------------------|
G---------------------------------------------------------------------------|
C---------------------------------------------------------------------------|

D-T1513T1513T1513T1513-T1512T1512T1512T1512---------------------------------|
A---------------------------------------------------------------------------|
F---------------------------------------------X2----------------------------|
C------------------------------------------------(last time playing)--------|
G---------------------------------------------------------------------------|
C-------------------------------------------------17\-----------------------|

[VERSE 1]
D----------------------------------------------------------------------------|
A----------------------------------------------------------------------------|
F----------------------------------------------------------------------------|
C--------------(3)^-11111111-3333-5555---------------(3)^-11111111-3333-2222-|
G---3p2-3p2---------11111111-3333-5555----3p2 3p2---------11111111-3333-2222-|
C-00---0---000------11111111-3333-5555--00---0---000------11111111-3333-2222-|
  **   *   ***                          **   *   ***
D----------------------------------------------------------------------------|
A----------------------------------------------------------------------------|
F----------------------------------------------------------------------------|
C--------------(6)^-11111111-3333-5555---------------(8)^-11111111-3333-2222-|
G---6p5-6p5---------11111111-3333-5555----8p7-8p7---------11111111-3333-2222-|
C-00---0---000------11111111-3333-5555--00---0---000------11111111-3333-2222-|
  **   *   ***                          **   *   ***
D---------------------------------------------------------------------------|
A---------------------------------------------------------------------------|
F---------------------------------------------------------------------------|
C-11111111-3333-2222-0~-----------------------------------------------------|
A-11111111-3333-2222-0~-----------------------------------------------------|
C-11111111-3333-2222-0~-----------------------------------------------------|

[CHORUS]
D---------------------------------------------------------------------------|
A---------------------------------------------------------------------------|
F-----15-15-15-15-----14-14-14-14-----12-12-12-12-----14-14-14-14-----------|
C-000--x--x--x--x-000--x--x--x--x-000--x--x--x--x-000--x--x--x--x-000-0~----|
G-000-13-13-13-13-000-12-12-12-12-000-10-10-10-10-000-12-12-12-12-000-0~----|
C-000-------------000-------------000-------------000-------------000-0~----|
  ***             ***             ***             ***             *** End On
D--------------------------------------------------------------------|------|
A--------------------------------------------------------------------|------|
F--------------------------------------------------------------------|------|
C--------------------------------------------------------------------|-0----|
G-------------5-7-8-5-7-8---------------7-9-10-7-9-10----------------|-0----|
C-5-7-8-5-7-8-------------7-9-10-7-9-10---------------15\\\\\\\\--X2-|-0----|

D---------------------------------------------------------------------------|
A---------------------------------------------------------------------------|
F---------------------------------------------------------------------------|
C---------------------------------------------------------------------------|
G--------3p1--------7p6-----------------------------------------------------|
C-000-000----000-000--------Repeat-x??--------------------------------------|
  *** ***    *** ***
[BREAKDOWN]
D---------------------------------------------------------------------------|
A---------------------------------------------------------------------------|
F---------------------------------------------------------------------------|
C-0--------------------------8-0--------------------------------------------|
G-0-0-000--000-0-000-000-5p6---0-0-000--000-0-000-000-8p6p5-----------------|
C-0-0-000--000-0-000-000-------0-0-000--000-0-000-000-----------------------|

D---------------------------------------------------------------------------|
A---------------------------------------------------------------------------|
F---------------------------------------------------------------------------|
C-0--------------------------8-0----------------------(8)^------------------|
G-0-0-000--000-0-000-000-5p6---0-0-000--000-0-000-000-----------------------|
C-0-0-000--000-0-000-000-------0-0-000--000-0-000-000--------Repeat-x??-----|
Tap to rate this tab
# A B C D E F G H I J K L M N O P Q R S T U V W X Y Z