Song name
# A B C D E F G H I J K L M N O P Q R S T U V W X Y Z

Misc Unsigned Bands - Bride And Groom - Yellow tab

www.myspace.com/brideandgroommusic.com

these tabs are 100% accurate. Bride and Groom tabbed it themselves.

figuree out the strummin yourself.

thanks :]

Tuning:Standard


INTRO
e|----------2--------0--------0 h-2p--------------------------------------------------|
B|------------0---------0-------------0-----------------------------------------------|
G|----1-------------------------------------------------------------------------------|
D|-2-----2-------2--------2--------------2--------------------------------------------|
A|------------------------------------------------------------------------------------|
E|------------------------------------------------------------------------------------|

e|---------0-------0----0--------0----0-------0------0----0------------------------------|
B|-----------0------------0-------0---0---------0------0--0------------------------------|
G|---6----------------2-------4-------6-----2------4------9------------------------------|
D|-7---7-------7------4-------6-------7-----4------6------11-----------------------------|
A|---------------------------------------------------------------------------------------|
E|---------------------------------------------------------------------------------------|
 Verse: Its seems that....
e|-0-----------0--------0------0--|
B|-0-----------0--------0------0--|(play this twice)
G|-1-----------6--------2------4--|
D|-2-----------7--------4------6--|
A|--------------------------------|
E|--------------------------------|
 pre verse: Fill me up with things....
e|-0-------0----------------------------------------------------------------------|
B|-0-------0----------------------------------------------------------------------|
G|-9-------8----------------------------------------------------------------------|
D|-11------9----------------------------------------------------------------------|
A|--------------------------------------------------------------------------------|
E|--------------------------------------------------------------------------------|
 chorus: oh, its coming down...
e|--0------0-----0--------0-0---0----0-0--|
B|--0------0-----0--------0-0---0----0-0--|
G|--6------2-----2--------6-6---4----6-6--|(play this twice)
D|--6------2-----1--------6-6---4----6-6--|
A|--4------0-----2--------4-4---2----4-4--|
E|----------------------------------------|
 Chourus outro: so hold it down, like you mean it...
e|--0---0------0------------------------------------------------------------------|
B|--0---0------0------------------------------------------------------------------|
G|--2---1------2------------------------------------------------------------------|
D|--2---2------1------------------------------------------------------------------|
A|--0---0------2------------------------------------------------------------------|
E|--------------------------------------------------------------------------------|
 Intro to verse 2
e|--------0------0------0-------------0-------0-----------0------------------------------|
B|----------0------0------0-------------0-------0---------0------------------------------|
G|---1----------------------------1-----------------------6------------------------------|
D|-2---2------2------2------2---2---2------2-------2------7------------------------------|
A|---------------------------------------------------------------------------------------|
E|---------------------------------------------------------------------------------------|
 Note: this riff is played over the first measure of intro 2
e|-4-----2-----0------------------------------------------------------------------|
B|-5-----4-----2------------------------------------------------------------------|
G|--------------------------------------------------------------------------------|
D|--------------------------------------------------------------------------------|
A|--------------------------------------------------------------------------------|
E|--------------------------------------------------------------------------------|
 Bridge: wooooooooooaaaaaaah!
e|-0--------0--------0------------------------------------------------------------|
B|-0--------0--------0------------------------------------------------------------|
G|-6--------4--------8------------------------------------------------------------|
D|-6--------4--------6------------------------------------------------------------|
A|-4--------2--------7------------------------------------------------------------|
E|--------------------------------------------------------------------------------|
 Outro: Do you remember last year....
e|-0-----0-----0----0--------------------------------------------------------------|
B|-0-----0-----0----0--------------------------------------------------------------|
G|-1-----2-----6----2--------------------------------------------------------------|
D|-2-----2-----6----2--------------------------------------------------------------|
A|-2-----0-----4----0--------------------------------------------------------------|
E|-0-------------------------------------------------------------------------------|


| /  slide up
| ..  slide down
| h  hammer-on
| p  pull-off
| ~  vibrato
| +  harmonic
| x  Mute note

===============================================================================
Tap to rate this tab
# A B C D E F G H I J K L M N O P Q R S T U V W X Y Z