Guitaretab - guitar tabs
Song name
# A B C D E F G H I J K L M N O P Q R S T U V W X Y Z

Misc Unsigned Bands - Mildvibe - Time To Stay tab

there are no lyrics in the verses or bridge, and is mainly bass (thats tabbed, too).

In the verse, you play the chord C in time with the C note on the bass:
   C  C
e|------|
b|-1--1-|
g|------|
d|-2--2-|
a|-3--3-|
e|-3--3-|

play through this riff 4 times, and then play:
[ Tab from: http://www.guitaretab.com/m/misc-unsigned-bands/87603.html ]
   E  F   D#
e|-9--11--8--|
b|-9--11--8--|
g|-9--11--8--|
d|-9--11--8--|
a|-7--9---6--|
e|-7--9---6--|

play the first E until the bridge starts, and then start playing the rest of the riff, 
the second guitar does this:

e|-------------------------|
b|-------------------------|
g|-12-12-10-10-------------|
d|-------------12-12-------|
a|------------------10-10--|
e|-------------------------|
Related for Mildvibe - Time To Stay tab
Advertisement will be closed in 10 seconds