Song name
# A B C D E F G H I J K L M N O P Q R S T U V W X Y Z

Misc Unsigned Bands - Vintage - Jard 241 tab

i saw the other j'ard 241 tab and it was 100% right except the solo so... this is it.

solo:Gtr 1

[---5555555-333-3333-5555555-333--8-8-8-8----]
[---5555555-333-3333-5555555-333--8-8-8-8----]
[---xxxxxxx-xxx-xxxx-xxxxxxx-xxx--x-x-x-x----]
[---7777777-555-4444-7777777-555-10101010----]
[--------------------------------------------]
[--------------------------------------------]x2

[---10101010101010-12121212121212-131313131313131313-15~~---]
[---10101010101010-12121212121212-131313131313131313-15~~---]
[---xxxxxxxxxxxxxx-xxxxxxxxxxxxxx-xxxxxxxxxxxxxxxxxx-xx~~---]
[---12121212121212-14141414141414-151515151515151515-17~~---]
[-----------------------------------------------------------]
[-----------------------------------------------------------]

[--------------------------------------]
[--------------------------------------]
[--------------------------------------]
[--------------------------------------]
[---5(6)/7777/5554~-5(6)/7777/555-10~--]
[--------------------------------------]x2

[-------------------------------------]
[-------------------------------------]
[-------------------------------------]
[-------------------------------------]
[---12-121212121212-141214171417-19~--]
[-------------------------------------]

[-------------------------------------]
[-------------------------------------]
[-------------------------------------]
[------------------------7~-----------]
[---1917141210-----------7~-----------]
[-------------12108-5~---5~-----------]

Gtr 2: (this is exactly how freddi plays it, but the easy way is just A,G,F#,G,F#. you 
just play the chords with the rhythm on the song after the solo is finished you play this 
then go onto the chorus.)

[---------------------------------------]
[---------------------------------------]
[---------------------------------------]
[--------------------5------------------]
[---7/x-xx-555555/7/5-75-7/-555555/7~---]
[---5/x-xx-323232/5-----75/-323232/5~---]x11

there you go, brilliant solo by Freddi, as you know freddi plays both guitar parts, so 
bass and keyboard take place for the second guitar when they play live.
Tap to rate this tab
# A B C D E F G H I J K L M N O P Q R S T U V W X Y Z