Song name
# A B C D E F G H I J K L M N O P Q R S T U V W X Y Z

Misc Unsigned Bands - Vintage - Sick tab

Sick:

Verse-
  E     B   C#   G# A   E     B   
[--------------------------------]
[-0---4---5---4---2---0---4------]
[-1---4---6---5---2---1---4------]
[-2---4---6---6---2---2---4------]
[-2---2---4---6---0---2---2------]
[-0-----------4-------0----------]x2

    A   B   E       A     B   E
[-----------0--------------0-----------------]
[---2---4---0------2---4---0------2---4------]
[---2---4---1------2---4---1------2---4------]
[---2---4---2------2---4---2------2---4------]
[---0---2---2------0---2---2------0---2------]
[-----------0--------------0-----------------]

Chorus-

      E     D       C#           A         B
[-------222----------------------------]
[---00--333--555555-----222---44444----]
[---11--222--666666-----222---44444----]
[---22--000--666666-----222---44444----]
[---22-------444444-----000----22222---]
[---00---------------------------------]


Interlude:

          E               C#             E             C#       B
[-----------------------------------------------]
[---99999999---66666666---99999999---66666464---]
[---99999999---66666666---99999999---66666464---]
[---99999999---66666666---99999999---66666464---]
[---77777777---44444444---77777777---44444242---]
[-----------------------------------------------]


Verse 2-

(Gtr 1 does the same as verse 1)

Gtr2:
        E      B       C#      G#       A
[----------------------------------------------]
[----------------------------------------------]
[----------------------------------------------]
[-----------4444444466666666--------22222222---]
[---2222222222222222444444446666666600000000---]
[---00000000----------------44444444-----------]

[------------------------------]
[-----------4444444454454454---]
[-----------4444444444444444---]
[-----------4444444444444444---]
[---222222222222222222222222---]
[---00000000-------------------]x2

2nd Chorus: (1st Gtr does the same as last chorus)

Gtr 2-

[-----------------------------------]
[-----------------------------------]
[----------------1111111121121121---]
[22222222444444442222222222222222---]
[00000000222222222222222222222222---]
[----------------0000000000000000---]x2

Gtr 1 & 2 play A B E D C# A B (Like the end of the last chorus)

Interlude-

Outro-

[------------------------------------------------0--]
[---22222222--44444444----222222222--44445454----0--]
[---22222222--44444444----222222222--44444444----1--]
[---22222222--44444444----222222222--44444444----2--]
[---00000000--22222222----000000000--22222222----2--]
[------------------------------------------------0--]


Lyrics:-

I'm Feeling sick,
I think i swallowed a toothpick,
I miss Michelle again.
I'm going mad,
without her I am really sad, 
I miss Michelle again.
wooh,
I wish i could be there,
I think I really care, 
it's all too much,
from that very first touch,
I think i'll miss michelle quite alot! 
Tap to rate this tab
# A B C D E F G H I J K L M N O P Q R S T U V W X Y Z