Song name
# A B C D E F G H I J K L M N O P Q R S T U V W X Y Z

Misc Unsigned Bands - Vintage - Somebody tab

the tab for this thats already on the website is wrong it's four semi-tones sharp so here 
Freddi actually plays it.

Intro & Verse

[--------------------------]
[--------------------------]
[--------------------------]
[---555/-------------------]
[---333/x555-5-333x-5555---]
[-------x333-3-111x-3333---]

Chorus

[---------------------------------------------3333333333333~--]
[---------------------------------------------3333333333333~--]
[---55555------888883333333----55555-----888880000000000000~--]
[---55555666666888883333333----5555566666888880000000000000~--]
[---33333666666666661111111----333336666666666-------------~--]
[--------444444---------------------44444-----3333333333333~--]

Solo

[-----------------------------------------------------]
[---11(13)(13)(13)(13)/8-----------------111311131313-]
[------------------------108-----8/1012---------------]
[---------------------------10-10---------------------]
[-----------------------------------------------------]
[-----------------------------------------------------]

[-------------------------------------------------------]
[---1311--1311--1311--1311--1311--1311--13(15)(15)1311v-]
[-------12----12----12----12----12----12----------------]
[-------------------------------------------------------]
[-------------------------------------------------------]
[-------------------------------------------------------]

[--------------------------------------------------]
[---11-8-------------------------------------------]
[--------108-10(10)8-------------------------------]
[---------------------12--12(12)10-----------------]
[----------------------------------108-------------]
[-------------------------------------11888v-------]

Interlude

[-------------------------------------------------]
[-------------------------------------------------]
[-------------------------------------------------]
[---5~----------8~----3~----5~---------8~---------]
[---3~----6~----6~----1~----3~---6~----6~----2~---]
[---------4~---------------------4~----------3~---]

Outro

[--------]
[--------]
[--------]
[---5~---]
[---3~---]
[--------]

You think you are somebody,
but don't you wonder why,
you screw up everybody,
so why d'ya even try,

I really do not like you,
i wish i'd see the day,
that you would leave this city,
i think i'd even pay,

There once was a time,
i felt sorry for you,
then i saw you for what you are,
and now i hate you too,

So just leave,
unless you do one thing,
redeem yourself once again,
and then you can be seen.
Tap to rate this tab
 
# A B C D E F G H I J K L M N O P Q R S T U V W X Y Z