Song name
# A B C D E F G H I J K L M N O P Q R S T U V W X Y Z

Misc Unsigned Bands - Rench - Miss Perfect tab

Intro

gtr1
e----------------------- |
b----8-6-5---5---------- |
g--5-------7---7-5------.|
d-----------------------.| X16
a----------------------- |
E----------------------- |

gtr2
e-----------------------
b-----------------------
g--5~---------5~--------
d--5~---------5~--------
a--3~---------3~--------
E-----------------------

gtr2
e-------------------------------------- |
b-------------------------------------- |
g-55555555----------99999999-77777777--.|
d-55555555-55555555-99999999-77777777--.| X2
a-33333333-55555555-77777777-55555555-- |
E----------33333333-------------------- |
Tap to rate this tab
# A B C D E F G H I J K L M N O P Q R S T U V W X Y Z