Song name
# A B C D E F G H I J K L M N O P Q R S T U V W X Y Z

Misc Unsigned Bands - Vintage - Laminated Floorboards In A Winter Wonderland tab

this is the solo tab for laminated floorboards...
Freddi wrote this for a laugh and may not be included in their new album, but 
i think it's got a cracking solo

[-------------------------------------------------------------]
[---------------------------------8---555---------810(10)810--]
[------------------------------50777/55555---5/7/9------------]
[---------------------------5/7-----------757-----------------]
[---5/6/77775/6/77775/6/7777----------------------------------]
[-------------------------------------------------------------]

[-----------------------------------------------------15171517151720-]
[---108-----------------------------------------131517----------1720-]
[------975-----------------------1214-14(14)1214---------------------]
[---------75---------------101214------------------------------------]
[-----------75---------1012------------------------------------------]
[-------------858-1012-----------------------------------------------]

[--2017--172017--172017--172017--172017--172017--172017-20(22)(22)(22)2017-]
[------16------16------16------16------16------16--------------------------]
[--------------------------------------------------------------------------]
[--------------------------------------------------------------------------]
[--------------------------------------------------------------------------]
[--------------------------------------------------------------------------]

[-------------------------------------]
[-------------------------------------]
[-------------------------------------]
[-------------------------------------]
[---------------------5(6)/75---00-~--]
[---20171512v10855v-58-------875-5v~--]

this so good! i think Ryan was showing that Punk Rock and solo's do go together!
Tap to rate this tab
# A B C D E F G H I J K L M N O P Q R S T U V W X Y Z