Song name
# A B C D E F G H I J K L M N O P Q R S T U V W X Y Z

Misc Unsigned Bands - Choose From 7 - Are You Bulletproof tab

PM (.)  - Palm mute
h  - Hammer on
p  - Pull off
~  - Vibrato
/  - Slide up
\  - Slide down
b  - Bend

  Riff 1 4x
e --------------------------------------------------------------------------|
B --------------------------------------------------------------------------|
G --------------------------------------------------------------------------|
D --------9----10----9----7------9----7-----5-----7---5----4------5----4----|
A ---7-7----7-----7----5----5-5----5----3-3----3----3----2----2-2----2------|
E --------------------------------------------------------------------------|
PM   . .    .     .    .    . .    .    . .    .    .    .    . .    .

  on the 4th time play 3x more
e -----------------------------|
B -----------------------------|
G -----------------------------|
D ------4-----5---4-4-4--------|
A --2-2---2-2---2---2-2--------|
D -----------------------------|
PM   .   . .   .

  Riff 2 2x
e -------------------------------------------------------------|
B -------------------------------------------------------------|
G -------------------------------------------------------------|
D -------9-----10-7-5-----7-----9-----10-7-5-------------------|
A ---7-7---7-7--------7-8---7-7---7-7--------7-8-5-------------|
D -------------------------------------------------------------|
PM   . .   . .              . .   . .

  Riff 3 2x
e ---------------------------------------------------|
B ---------------------------------------------------|
G ---------------------------------------------------|
D -------7-----8-5-3-----5-----7----8-5-3------------|
A ---5-5---5-5-------5-6---5-5---5-5------5-6-3------|
D ---------------------------------------------------|
PM   . .   . .             . .   . .

  Riff 2
e -------------------------------------------------------------|
B -------------------------------------------------------------|
G -------------------------------------------------------------|
D -------9-----10-7-5-----7-----9-----10-7-5-------------------|
A ---7-7---7-7--------7-8---7-7---7-7--------7-8-5-------------|
D -------------------------------------------------------------|
PM   . .   . .              . .   . .

  Riff 3
e ---------------------------------------------------|
B ---------------------------------------------------|
G ---------------------------------------------------|
D -------7-----8-5-3-----5-----7----8-5-3-----3------|
A ---5-5---5-5-------5-6---5-5---5-5------5-6-3------|
D ---------------------------------------------------|
PM   . .   . .             . .   . .

  Riff 4 2x
e --------------------------------------------------------------------------|
B --------------------------------------------------------------------------|
G --------------------------------------------------------------------------|
D --------------------------------------------------------------------------|
A --------------------------------------------------3-----------------------|
D --7-7-7-7-7-7-7-7-7-7-7-7-7-7-7-7-7-7-7-7-7-7-7-7-3-3-3-3-3-3-3-3-3-3-3-3-|
PM  . . . . . . . . . . . . . . . . . . . . . . . .   . . . . . . . . . . .

  Riff 4 cont.
e --------------------------------------------------------------------------|
B --------------------------------------------------------------------------|
G --------------------------------------------------------------------------|
D --------------------------------------------------------------------------|
A ----5-------------------------7-------------------------------------------|
D --3-5-5-5-5-5-5-5-5-5-5-5-5-5-7-7-7-7-7-7-7-7-7-7-7-7-7-7-7-7-7-7-7-7-7-7-|
PM  .   . . . . . . . . . . . .   . . . . . . . . . . . . . . . . . . . . .

  Riff 4 cont.
e ------------------------------|
B ------------------------------|
G ------------------------------|
D ------------------------------|
A --------3-3-3-3h5p3-2-2-2-2-2-|
D --7-7-7-3-3-3-3h5p3-2-2-2-2-2-|
PM  . . .   . .           . .

  Riff 5 2x
e ---------------------------------------------------------------------------|
B ---------------------------------------------------------------------------|
G ---------------------------------------------------------------------------|
D ---------------------------------------------------------------------------|
A --/7--7-7-7-7-7-7-7-7-7-7-7-7-7h9p7\5h8p5\3h5p3p-0-0-0-0-0-3-3-3-3-3-3/5-5-|
D --/7--7-7-7-7-7-7-7-7-7-7-7-7--------------------0-0-0-0-0-3-3-3-3-3-3/5-5-|
PM                                                     . . .     . . .

  Riff 5 cont.
e -----------------------------------------------------------|
B -----------------------------------------------------------|
G -----------------------------------------------------------|
D -----------------------------------------------------------|
A --5-5-5-5/7--7-7-7-7-7-7-7-7-7-7-7-7-3-3-3h5p3-2-2-2-2-2---|
D --5-5-5-5/7--7-7-7-7-7-7-7-7-7-7-7-7-3-3-3h5p3-2-2-2-2-2---|
PM                                                   . .

  Riff 6 2x
e --------------------------------------------------------------------------|
B --------------------------------------------------------------------------|
G ---9-----9-----12-11-----11-----9-----9-----12-7-----7-----9-----9--------|
D ---7-----7-----10-9------9------7-----7-----10-5-----5-----7-----7--------|
A ---7-7-7-7-7-7-10-9--9-9-9--9-9-7-7-7-7-7-7-10-5-5-5-5-5-5-7-7-7-7-7-7----|
D --------------------------------------------------------------------------|
PM     . .   . .       . .    . .   . .   . .      . .   . .   . .   . .

  Riff 6 cont.
e ----------------------------------------------------|
B ----------------------------------------------------|
G --12-11-----11-----9-----9-----12-14-11-12-11-9-----|
D --10-9------9------7-----7-----10-12-9--10-9--7-----|
A --10-9--9-9-9--9-9-7-7-7-7-7-7-10-12-9--10-9--7-----|
D ----------------------------------------------------|
PM        . .    . .   . .   . .

  Riff 7 4x
e ----------------------------------|
B ----------------------------------|
G ------7-----5-7-----4-5-----------|
D ------5-----3-5-----2-3-----------|
A --0-0-5-0-0-3/5-0-0-2/3-----------|
D ----------------------------------|

  Riff 7a
e ---------------------------------|
B ---------------------------------|
G --9-----7---7/9------------------|
D --7-----5---5/7------------------|
A --7-0-0-5-0-5/7------------------|
D ---------------------------------|

  Riff 8 4x
e ----------------------------------------------------------------------|
B ----------------------------------------------------------------------|
G ----------------------------------------------------------------------|
D --9--------7--------5----4----9--------7--------5----4----9-----------|
A --7--------5--------3----2----7--------5--------3----2----7-----------|
D ----------------------------------------------------------------------|

  Solo over Riff 8
e --------------------------------------------------------------------------|
B ----------10-9-10-9h10p9\-7\-5/-7~--------10-9-10-12-12/14-12-------------|
G --------11------------------------------11--------------------14-14/16~---|
D ------11------------------------------11----------------------------------|
A --9-12----------------------------9-12------------------------------------|
D --------------------------------------------------------------------------|

e ---------------------------------------------------------------------------|
B ----------10-9-10-9h10p9\-7\-5/-7~--------10-9----------------8-7-8-7h8p7\-|
G --------11------------------------------11-----11-9-11b------9-------------|
D ------11------------------------------11--------------------9--------------|
A --9-12----------------------------9-12------------------7-10---------------|
D ---------------------------------------------------------------------------|

e --------------------------------------------------------------------------|
B --5\-3/-5~------8-7-8-10-10/12-10----------------8-7-8-7h8p7\-5\-3/-5~----|
G ---------------9------------------12-12/14------9-------------------------|
D --------------9--------------------------------9--------------------------|
A ----------7-10-----------------------------7-10---------------------------|
D --------------------------------------------------------------------------|

e --------------------------------------------------------------------------|
B --------8-7---------------------------------------------------------------|
G -------9----9-7-9b-7h9p7--------------------------------------------------|
D ------9------------------10-10-10-9-9----------------9--------------------|
A --7-10--------------------------------10-10-10-9-9-7----------------------|
D --------------------------------------------------------------------------|

  Riff 9 4x
e --------------------------------------------------------------------------|
B --------------------------------------------------------------------------|
G --------------------------------------------------------------------------|
D --------9----10----9-------7---9---7-------5---7---5-------2h4p2-------4--|
A ---7-7----7-----7----7-5-5---5---5---5-3-3---3---3---3-2-2-------5p4p2----|
E --------------------------------------------------------------------------|
PM   . .    .     .    . . .   .   .   . . .   .   .   . . .

   on the 4th time play 3x more
e -----------------------------|
B -----------------------------|
G -----------------------------|
D ------4-----5---4-4-4--------|
A --2-2---2-2---2---2-2--------|
D -----------------------------|
PM   .   . .   .

  Riff 2 2x
e -------------------------------------------------------------|
B -------------------------------------------------------------|
G -------------------------------------------------------------|
D -------9-----10-7-5-----7-----9-----10-7-5-------------------|
A ---7-7---7-7--------7-8---7-7---7-7--------7-8-5-------------|
D -------------------------------------------------------------|
PM   . .   . .              . .   . .

  Riff 3 2x
e ---------------------------------------------------|
B ---------------------------------------------------|
G ---------------------------------------------------|
D -------7-----8-5-3-----5-----7----8-5-3------------|
A ---5-5---5-5-------5-6---5-5---5-5------5-6-3------|
D ---------------------------------------------------|
PM   . .   . .             . .   . .

  Riff 2
e -------------------------------------------------------------|
B -------------------------------------------------------------|
G -------------------------------------------------------------|
D -------9-----10-7-5-----7-----9-----10-7-5-------------------|
A ---7-7---7-7--------7-8---7-7---7-7--------7-8-5-------------|
D -------------------------------------------------------------|
PM   . .   . .              . .   . .

  Riff 3
e ---------------------------------------------------|
B ---------------------------------------------------|
G ---------------------------------------------------|
D -------7-----8-5-3-----5-----7----8-5-3-----3------|
A ---5-5---5-5-------5-6---5-5---5-5------5-6-3------|
D ---------------------------------------------------|
PM   . .   . .             . .   . .

  Riff 4 2x
e --------------------------------------------------------------------------|
B --------------------------------------------------------------------------|
G --------------------------------------------------------------------------|
D --------------------------------------------------------------------------|
A --------------------------------------------------3-----------------------|
D --7-7-7-7-7-7-7-7-7-7-7-7-7-7-7-7-7-7-7-7-7-7-7-7-3-3-3-3-3-3-3-3-3-3-3-3-|
PM  . . . . . . . . . . . . . . . . . . . . . . . .   . . . . . . . . . . .

  Riff 4 cont.
e --------------------------------------------------------------------------|
B --------------------------------------------------------------------------|
G --------------------------------------------------------------------------|
D --------------------------------------------------------------------------|
A ----5-------------------------7-------------------------------------------|
D --3-5-5-5-5-5-5-5-5-5-5-5-5-5-7-7-7-7-7-7-7-7-7-7-7-7-7-7-7-7-7-7-7-7-7-7-|
PM  .   . . . . . . . . . . . .   . . . . . . . . . . . . . . . . . . . . .

  Riff 4 cont.
e ------------------------------|
B ------------------------------|
G ------------------------------|
D ------------------------------|
A --------3-3-3-3h5p3-2-2-2-2-2-|
D --7-7-7-3-3-3-3h5p3-2-2-2-2-2-|
PM  . . .   . .           . .

  Riff 5 2x
e ---------------------------------------------------------------------------|
B ---------------------------------------------------------------------------|
G ---------------------------------------------------------------------------|
D ---------------------------------------------------------------------------|
A --/7--7-7-7-7-7-7-7-7-7-7-7-7-7h9p7\5h8p5\3h5p3p-0-0-0-0-0-3-3-3-3-3-3/5-5-|
D --/7--7-7-7-7-7-7-7-7-7-7-7-7--------------------0-0-0-0-0-3-3-3-3-3-3/5-5-|
PM                                                     . . .     . . .

 Riff 5 cont.
e -----------------------------------------------------------|
B -----------------------------------------------------------|
G -----------------------------------------------------------|
D -----------------------------------------------------------|
A --5-5-5-5/7--7-7-7-7-7-7-7-7-7-7-7-7-3-3-3h5p3-2-2-2-2-2---|
D --5-5-5-5/7--7-7-7-7-7-7-7-7-7-7-7-7-3-3-3h5p3-2-2-2-2-2---|
PM                                                   . .

  Riff 9
e --------------------------------------------------------------------------|
B --------------------------------------------------------------------------|
G --------------------------------------------------------------------------|
D --------9----10----9-------7---9---7-------5---7---5-------2h4p2-------4--|
A ---7-7----7-----7----7-5-5---5---5---5-3-3---3---3---3-2-2-------5p4p2----|
E --------------------------------------------------------------------------|
PM   . .    .     .    . . .   .   .   . . .   .   .   . . .

  Riff 1
e --------------------------------------------------------------------------|
B --------------------------------------------------------------------------|
G --------------------------------------------------------------------------|
D --------9----10----9----7------9----7-----5-----7---5----4------5----4----|
A ---7-7----7-----7----5----5-5----5----3-3----3----3----2----2-2----2------|
E --------------------------------------------------------------------------|
PM   . .    .     .    .    . .    .    . .    .    .    .    . .    .

  Riff 2
e -------------------------------------------------------------|
B -------------------------------------------------------------|
G -------------------------------------------------------------|
D --/7-----9-----10-7-5-----7-----9-----10-7-5-----------------|
A --/7-7-7---7-7--------7-8---7-7---7-7--------7-8-5-----------|
D -------------------------------------------------------------|
PM   . .   . .              . .   . .

  Riff 3
e ---------------------------------------------------|
B ---------------------------------------------------|
G ---------------------------------------------------|
D -------7-----8-5-3-----5-----7----8-5-3-----3------|
A ---5-5---5-5-------5-6---5-5---5-5------5-6-3------|
D ---------------------------------------------------|
PM   . .   . .             . .   . .

  Riff 4
e --------------------------------------------------------------------------|
B --------------------------------------------------------------------------|
G --------------------------------------------------------------------------|
D --------------------------------------------------------------------------|
A --------------------------------------------------3-----------------------|
D --7-7-7-7-7-7-7-7-7-7-7-7-7-7-7-7-7-7-7-7-7-7-7-7-3-3-3-3-3-3-3-3-3-3-3-3-|
PM  . . . . . . . . . . . . . . . . . . . . . . . .   . . . . . . . . . . .

  Riff 4 cont.
e --------------------------------------------------------------------------|
B --------------------------------------------------------------------------|
G --------------------------------------------------------------------------|
D --------------------------------------------------------------------------|
A ----5-------------------------7-------------------------------------------|
D --3-5-5-5-5-5-5-5-5-5-5-5-5-5-7-7-7-7-7-7-7-7-7-7-7-7-7-7-7-7-7-7-7-7-7-7-|
PM  .   . . . . . . . . . . . .   . . . . . . . . . . . . . . . . . . . . .

  Riff 4 cont.
e -------------------------------------|
B -------------------------------------|
G -------------------------------------|
D -------------------------------------|
A --------3-3-3-3h5p3-2-2-2-2-2--/7----|
D --7-7-7-3-3-3-3h5p3-2-2-2-2-2--/7----|
PM  . . .   . .           . .
Tap to rate this tab
# A B C D E F G H I J K L M N O P Q R S T U V W X Y Z