Guitaretab - guitar tabs
Song name
# A B C D E F G H I J K L M N O P Q R S T U V W X Y Z

Misc Unsigned Bands - The Attitude - Best Days tab

Song: Best Days
Artist: The Attitude
Tuning: Drop D (DADGBE)

Intro - Both Guitars
|------------------------------------------------------------------------------------------|
|------------------------------------------------------------------------------------------|
|-12-12-----12-12-----14/15-15-15-15-15-15-15-15/12-12-12-12-12-12-12-12-12/13-13^-13^-13^-|
|------------------------------------------------------------------------------------------|
|------12-12-----12-12---------------------------------------------------------------------|
|------------------------------------------------------------------------------------------|

Then - Both Guitars
|------------------------------------------------|
|------------------------------------------------|
|-77777777-7-------------------------------------|
|-77777777-788888888-8/55555555-66666333---------|
|-55555555-588888888-8/55555555-66666333---------|
|-----------88888888-8/55555555-66666333---------|

Pre-Verse - Lead Guitar
|---------------------------------------------------------------------------|
|---------------------------------------------------------------------------|
|-7-9-7--9/10/7----7-9-7--9/10/7----7-9-7-9/10/7----7-9-7--10-9-------------|
|---------------------------------------------------------------10-12~------|
|---------------------------------------------------------------------------|
|---------------------------------------------------------------------------|

Pre-Verse  Rhythm Guitar				
|---------------------------------------------|----------------------------------|
|---------------------------------------------|----------------------------------|
|-77777777-99999999---------------------------|-77--77---------------------------|
|-77777777-99999999-88888888-1010101010101010-|-77--77--88--88--55--55--5/666----|
|-55555555-77777777-88888888-1010101010101010-|-55--55--88--88--55--55--5/666----|
|-------------------88888888-1010101010101010-|---------88--88--55--55--5/666----|
                                              |-Lead Guitar Ends Here

Verse  Rhythm Guitar             3x                              4th Time
|-------------------------------------|------------------------------------------------------|
|-------------------------------------|------------------------------------------------------|
|-77777777-99999999-------------------|-77777777-99999999-1010101010101010-1212121212121212--|
|-77777777-99999999-88888888-55555555-|-77777777-99999999-8-8-8-8-8-8-8-8--1010101010101010--|
|-55555555-77777777-88888888-55555555-|-55555555-77777777-8-8-8-8-8-8-8-8--1010101010101010--|
|-------------------88888888-55555555-|------------------------------------------------------|
  PM|-------------------------------|   PM|---------------------------------|

Verse  Lead Guitar                                4x
|------------------------------------------------------|
|------------------------------------------------------|
|--7777-7/9/7-7777-7/10/7-777777777^7^7^7^7^7^7^7^-----|
|------------------------------------------------------|
|------------------------------------------------------|
|------------------------------------------------------|
[ Tab from: http://www.guitaretab.com/m/misc-unsigned-bands/87726.html ]
Chorus                                                                           2x
|-------------------------------------------------------------------------------------|
|-------------------------------------------------------------------------------------|
|-77777777-7------------------------------77777777-99999999---------------------------|
|-77777777-788888888-8/55555555-66666333--77777777-99999999-88888888-1010101010101010-|
|-55555555-588888888-8/55555555-66666333--55555555-77777777-88888888-1010101010101010-|
|-----------88888888-8/55555555-66666333--------------------88888888-1010101010101010-|

Post-Chorus  Lead Guitar
|-----------------------------------------------------------------------------|
|-----------------------------------------------------------------------------|
|-12---10-9-10-9-------12-10-9-10-9----------9-10--9-10-----12-10-9----9------|
|----------------10-----------------10----10------------------------10---12---|
|-----------------------------------------------------------------------------|
|-----------------------------------------------------------------------------|
 
Post-Chorus - Rhythm Guitar 
|--------|----------------------------------|
|--------|----------------------------------|
|-77--77-|-77--77---------------------------|
|-77--77-|-77--77--88--88--55--55--5/666----|
|-55--55-|-55--55--88--88--55--55--5/666----|
|--------|---------88--88--55--55--5/666----|
         |-Lead Guitar Starts Here

Repeat Verse

Repeat Chorus
Lead Guitar plays this bit during second time through the Chorus:
|-----------------------------------------------------------------------------------------|
|-15-17-15--17/18/15----15-17-15--17/18/15----15-17-15--17/18/15----15-17-15-18-17--------|
|----------------------------------------------------------------------------------17-19--|
|-----------------------------------------------------------------------------------------|
|-----------------------------------------------------------------------------------------|
|-----------------------------------------------------------------------------------------|

Interlude  Lead Guitar                                   3x
|------------------------------------------------------------|
|----------8h9h10---------8h9h10-----------------------------| (at the end of the second time the 
|------------------------------------------------------------|  lead guitar holds a note which I
|-0-0-0-0---------0-0-0-0---------10-9-7--9-7-5--7-5-3-1-3-5-|  think is a G|-7^-| but Im not  
|-0-0-0-0---------0-0-0-0------------------------------------|  sure)
|-0-0-0-0---------0-0-0-0------------------------------------|

Interlude  Rhythm Guitar                           3x
|--------------------------------------------------------|
|--------------------------------------------------------|
|--------------------------------------------------------|
|-0-0-0-0---------0-0-0-0-------3-3-3-8-8-8-5-5-5-5-5-5--|
|-0-0-0-0---------0-0-0-0-------3-3-3-8-8-8-5-5-5-5-5-5--|
|-0-0-0-0---------0-0-0-0-------3-3-3-8-8-8-5-5-5-5-5-5--| 

Bridge  Lead Guitar
|------------------------------------------------|
|------------------------------------------------|
|---3~------------------7~---7~7~7~7~7~7~7~7~7~--|
|------------------------------------------------|
|------------------------------------------------|
|------------------------------------------------|
                             |-Bend back and forth

Bridge  Rhythm Guitar
|-------------------------------------------|
|-------------------------------------------|
|--7~---------------------------------------|
|--7~--------8~---------5~------------------|
|--5~--------8~---------5~------------------|
|------------8~---------5~------------------|

Repeat Chorus with the Lead Guitar bit Second Time through, and the Chorus is played 3x instead of two.

Outro  Lead Guitar      2x
|--------------------------|
|----------8h9h10----------| 
|--------------------------|
|-0-0-0-0---------0-0-0-0--|  
|-0-0-0-0---------0-0-0-0--|
|-0-0-0-0---------0-0-0-0--|

Outro  Rhythm Guitar    2x
|--------------------------|
|--------------------------|
|--------------------------|
|-0-0-0-0---------0-0-0-0--|
|-0-0-0-0---------0-0-0-0--|
|-0-0-0-0---------0-0-0-0--|

This was my first TAB, but i'm sure it's 95% accurate.
Related for The Attitude - Best Days tab