Song name
# A B C D E F G H I J K L M N O P Q R S T U V W X Y Z

Misc Unsigned Bands - Undiagnosed - Faltered Thoughts tab

pm= palm mute +
~=hold until feed back comes 
trp= triplet tremolo pick '_'_'
trm= tremolo pick  .

gtr:1 only
trm:   . . . . .      . . . . .     . . . . .
|---------------------------------------------|
|---------------------------------------------|
|---------------------------------------------|
|---------------------------------------------|
|-0-----5-5-5-6-5--5--6-6-6-8-6--8--8-8-8-7-5-|
|-0----------------5-------------8------------|
trm: . . . . .
|------------------|
|------------------|
|------------------|
|------------------|
|-4--6-6-6-5-3-----|
|-4----------------|

verse:1
gtr:2 comes in second time played

|-----------------------------------------|
|-----------------------------------------|
|-----------------------------------------|
|-----------------------------------------|
|--0--------5--------8---------4----------|
|--0--------5--------8---------4----------|

pm:                          + + + ~~~~~
|-----------------------------------------|
|-----------------------------------------|
|-----------------------------------------|
|-----------------------------------------|
|--0--------5--------8-------4-4-4--------|
|--0--------5--------8-------4-4-4--------|
pm:+ + +  + + +             + + +  + + + 
tr:'_'_'  '_'_'  . . . . .  '_'_'  '_'_'  . . . . . 
|---------------------------------------------------|
|---------------------------------------------------|
|---------------------------------------------------|
|---------------------------------------------------|
|--0-0-0--0-0-0--5-5-5-5-6--5-5-5--5-5-5--6-6-6-6-8-|
|--0-0-0--0-0-0-------------5-5-5--5-5-5------------|
   + + +  + + +             + + +  + + + 
   '_'_'  '_'_'  . . . . .  '_'_'  '_'_'  
|---------------------------------------------|
|---------------------------------------------|
|---------------------------------------------|
|---------------------------------------------|
|--8-8-8--8-8-8--8-8-8-8-6--4-4-4--4-4-4--6-5-|
|--8-8-8--8-8-8--8-8-8-8-6--4-4-4--4-4-4--6-5-|


Tap to rate this tab
# A B C D E F G H I J K L M N O P Q R S T U V W X Y Z