Song name
# A B C D E F G H I J K L M N O P Q R S T U V W X Y Z

Misc Unsigned Bands - Method 68 - Laminated Floorboards In A Winter Wonderland tab

this is the 2nd ever song by Method 68, Freddi (13 years old) originally wrote it for 
but decided to play it for brand new band Method 68.

Intro

[----------------------------------------------------------]
[----------------------------------------------------------]
[----------------------------------------------------------]
[---------999999-------777777--------999999----------------]
[---77777-777777-77777-555555--77777-777777-555-5777-7/5/7-]
[---55555--------55555---------55555-----------5-----------]

Verse

[----------------------------------------------------------]
[----------------------------------------------------------]
[----------------------------------------------------------]
[---------99x-999-------77x-777-------99x-999--------------]
[---77xx7-77x-777-77xx7-55x-555-77xx7-77x-777-55555-777777-]
[---55xx5---------55xx5---------55xx5----------------------]x2

Chorus

[---------------------------------------------------]
[---------------------------------------------------]
[---------------------------------------------------]
[---2222277777744444777777-2222277777744444777777---]
[---2222277777744444777777-2222277777744444777777---]
[---0000055555522222555555-0000055555522222555555---]x2

Interlude

[-----------------------------------------55555/777777-]
[-----------------------------------------77777/999999-]
[------------------------------------------------------]
[---------999999-------77777-------999999-77777/999999-]
[---77777-777777-77777-55555-77777-777777-55555/777777-]
[---55555--------55555-------55555---------------------]

(Then the bass kicks in but sometimes freddi plays it)

[--------------------------------------------------------]
[--------------------------------------------------------]
[--------------------------------------------------------]
[--------------------------------------------------------]
[--------777777-----555575-----7/9777-55555777759--------]
[---55555------55555------55555-----------------75v------]x2

solo

[-------------------------------------------------------------]
[---------------------------------8---555---------810(10)810--]
[------------------------------50777/55555---5/7/9------------]
[---------------------------5/7-----------757-----------------]
[---5/6/77775/6/77775/6/7777----------------------------------]
[-------------------------------------------------------------]

[-----------------------------------------------------15171517151720-]
[---108-----------------------------------------131517----------1720-]
[------975-----------------------1214-14(14)1214---------------------]
[---------75---------------101214------------------------------------]
[-----------75---------1012------------------------------------------]
[-------------858-1012-----------------------------------------------]

[--2017--172017--172017--172017--172017--172017--172017-20(22)(22)(22)2017-]
[------16------16------16------16------16------16--------------------------]
[--------------------------------------------------------------------------]
[--------------------------------------------------------------------------]
[--------------------------------------------------------------------------]
[--------------------------------------------------------------------------]

[-------------------------------------]
[-------------------------------------]
[-------------------------------------]
[-------------------------------------]
[---------------------5(6)/75---00-~--]
[---20171512v10855v-58-------875-5v~--]

Outro

[---------------------]
[---------------------]
[---------------------]
[---------------------]
[---5/77--7--7--7-77~-]
[---3/55--5--5--5-55~-]

Walking in a land of laminated floorboards,
had to turn around for homosexual cohorts,
we were situated at the freezing north pole,
when we ran into Santa livin on the dole,

I don't know why,
That Penguin died,
the nudist camp,
was for more relaxing,

Walking in a land of laminated floorboards,
had to turn around for homosexual cohorts,
we were situated at the freezing north pole,
when we ran into Santa livin on the dole,

I don't know why,
That Penguin died,
the nudist camp,
was for more relaxing,
Tap to rate this tab
# A B C D E F G H I J K L M N O P Q R S T U V W X Y Z