Song name
# A B C D E F G H I J K L M N O P Q R S T U V W X Y Z

Misc Unsigned Bands - House Of Zatizfaktion - Leading Me tab

My name is Cody Johnson, I am13 years old. I wrote this song, in my room one night when 
opened up my heart to two things. God and Music. Although it's not about God, it's for him.

Intro

D|---------------------------------------------------------------------|
A|---------------------------------------------------------------------|
F|--------------------------------------------------------------------o|
C|----------------------------------------------7---7-----------------o|
G|---7--7-9--9/10--10-10-10p9-9p7-7\5--5--5/7--7-9---9p8p7-7\5--5-5/7--|
C|--7--7--------------------------------5--/7------------------5--5/7--|


Chorus
    >  < > < >  < > < >   < >  <
D|--7--7-7-7-7--7-7-7-7---7-7--x--|--5--|-----|-----|
A|--10-10101010-10101010--1010-x--|--8--|-----|--5--|
F|--9--9-9-9-9--9-9-9-9---9-9--x--|--7--|--5--|--7--|
C|--7--7-7-7-7--7-7-7-7---7-7--x--|--5--|--3--|--7--|
G|--7--7-7-7-7--7-7-7-7---7-7--x--|--5--|--3--|--5--|
C|--7--7-7-7-7--7-7-7-7---7-7--x--|--5--|--3--|--5--|

      Do the same stumming pattern for all chords in chorus

Verse
    > < >  >  <  <  > < >
D|--101010-10-10-10-101010--|--7--|--5--|--3--|--5/7--|
A|--131313-13-13-13-131313--|--9--|--5--|--5--|--5/7--|
F|--121212-12-12-12-121212--|--9--|--7--|--5--|--7/9--|
C|--101010-10-10-10-101010--|--7--|--7--|--3--|--7/9--|
G|--101010-10-10-10-101010--|--7--|--5--|--3--|--5/7--|
C|--101010-10-10-10-101010--|--7--|--5--|--3--|--5/7--|

      Repeat the stumming patterns for all except last.

Aim Screen Name: NoWhiteHeros222
Tap to rate this tab
# A B C D E F G H I J K L M N O P Q R S T U V W X Y Z