Guitaretab - guitar tabs
Song name
# A B C D E F G H I J K L M N O P Q R S T U V W X Y Z

Misc Unsigned Bands - 4th Degree Burn - Persuade Yourself tab

Song: Persuade Yourself
Artist: 4th Degree Burn
Album: Where We've Been
Tuning: Drop D

Intro

 N.H.------|
|------------------------|
|o------9---------------o|
|---------9--------------|
|----5-------4h5p4--1----|
|o-----------4h5p4--1---o|
|------------4h5p4--1----|


After playing Intro Riff 8 times, play this.

Verse

 P.M.-|
|------------------------|
|o------4---------------o|
|---------4--------------|
|----7-------4h5p4--1----|
|o---5-------4h5p4--1---o|
|----0-------4h5p4--1----|


Chorus

           Your mistake is not a  parapraxis 
 P.M.-------|
|-----------------------------------------------|
|-----------------------------------------------|
|-------------7--6------------------------------|
|----0-----0--------8----7--------8--7--5--0----|
|----0-----0---------------10--9--8--7--5--0----|
|----0-----0----------------------8--7--5--0----|

       Show me your sapient ways of lying
 P.M.-|
|--------------------------------------------|
|--------------------------------------------|
|-------7---6--------------------------------|
|----0----------8---7---------8--7--5--10----|
|----0----------------10--9---8--7--5--10----|
|----0------------------------8--7--5--10----|
[ Tab from: http://www.guitaretab.com/m/misc-unsigned-bands/87819.html ]
        Cadgering Triumphed a   simple defeat
 P.M.--|
|-------------------------------15p13------13----|
|--------------------------------------17--------|
|--------10--9-----------------------------------|
|----10---------12--10---------------------------|
|----10-----------------12--10-------------------|
|----10------------------------------------------|

        It made you worth what you can't even  be 
 P.M.--|
|------------------------------------------------------|
|------------------------------------------------------|
|--------10--9-----------------------------------------|
|----10---------12---10-------------3----5--6--7-------|                     
|----10-------------------12---10---1----3--4--5-------|
|----10-------------------------------------------0----|

|------------------------------|*(the last chorus and second chorus plays
|------------------------------|from the beginning "Your" to ending "be"
|------------------------------|the first time, then repeats
|----10----8--7--5--4--1--0----|<==this riff 4 times the second time on the
|----10----8--7--5--4--1--0----|last chorus)
|----10----8--7--5--4--1--0----|


Riff before Bridge

      P.M.--|
|----------------------|
|o--------------------o|
|-------------3-7-6----|
|---0--0-0-0--1-5-4----|
|o--0--0-0-0--1-5-4---o|
|---0--0-0-0--1-5-4----|


Bridge

Gtr. 1 (play 12 times)

  N.H---------------|
|----------------------|
|o-----7-----9--7-----o|
|------------------4---|
|----------------------|
|o--9-----9-----------o|
|----------------------|

Gtr. 2 (comes in after Gtr. 1 plays bridge riff 4 times; play 8 times)

|----------------------|
|o--------------------o|
|----------------------|
|---4--------1---------|
|o--4--------1--------o|
|---4--4--4--1--1--1---|

Song Order

Intro
Verse (8x)
Chorus
Verse (8x)
Chorus (2x)
Riff before Bridge (8x)
Bridge
Chorus (2x)*
Related for 4th Degree Burn - Persuade Yourself tab
Advertisement will be closed in 10 seconds