Song name
# A B C D E F G H I J K L M N O P Q R S T U V W X Y Z

Misc Unsigned Bands - Recipe For A Hurricane - Fagget tab

                                       (strum lightly)
e----3---0--------------------0----------------------------------------------|
b----3---1--------------------1----------------------------------------------|
g----0---2--------------------2----------------------------------------------|
d-h2-0---2----------h2-2------2--------2-------------------------------------|
a----2---0----------h2-2------0--------2-------------------------------------|
e----3---0--------0----0------0----3-2-0-------------------------------------|
          Bitch....                     this story is about a mother fucker
e-------------------------------------------------------------------------|
b-------------------------------------------------------------------------|
g-------------------------------------------------------------------------|
d----------------5-----------2--------------------------------------------|
a----------------5-----------2--------------------------------------------|
e----------------3-----------0--------------------------------------------|
named josh myatt.(let ring)      he was a lone wolf unlit he came out of

e--------------------------------------------------------------------------|
b--------------------------------------------------------------------------|
g--------------------------------------------------------------------------|
d-------------7---5--2-----------------------------------------------------|
a-------------7---5--2-----------------------------------------------------|
e-------------5---3--0-------------------------3---2----0------------------|
  the closet.          kyle was with him

e-------0--------------------------------------------------------------|
b-------1--------------------------------------------------------------|
g-------2--------------------------------------------------------------|
d-------2--5-----2-----------------------------------------------------|
a-------0--5-----2-----------------------------------------------------|
e-------0--3-----0-----------------------------------------------------|
he is GAY! FUCK!
Tap to rate this tab
 
# A B C D E F G H I J K L M N O P Q R S T U V W X Y Z