Song name
# A B C D E F G H I J K L M N O P Q R S T U V W X Y Z

Misc Unsigned Bands - Andover - Karl Marx And Keychains tab

Artist: Andover
Song: Karl Marx and Keychains (Guitar 2 - Devin’s part)
                              ( ) = Guitar 1 – parts of Sippy’s part

Intro/verse 1
|-------------------------------------------------------|---------------------------------------------------|
|-------------------------------------------------------|---------------------------------------------------|
|-------------------------------------------------------|---------------------------------------------------|
|----------------14/15---------------------15-14--------|----------------14/15---------------8-7-10-8-7-----|
|-------------------------13/12------15-13-------15-13--|-------------------------13/12-----------------10--|
|--12--12-12-12--------12--------000--------------------|--12--12-12-12--------12--------000----------------|
   .   .  .  .         .         ... .  .        .  .      .   .  .  .         .         ...   
 
|-----------------------------------|
|-----------------------------------|
|-----------------------------------|
|-----------------------------------|
|--------7h8---8----------8-7-5-----|
|--8-888-----8----555-555-------10--|
   . ...     .    ... ...

|------------------------------------------------------------------------|
|------------------------------------------------------------------------|
|------------------------------------------------------------------------|
|-----14---15----14---15----8-7----------14---15----14---8-7----7-8-7----|
|--00----0----00----0----00-----10-8--00----0----00----0-----10-------8--|
|--00----0----00----0----00-----------00----0----00----0-----------------|
   ..    .    ..    .    ..           ..    .    ..    .

|------------------------------------------------------------|
|------------------------------------------------------------|
|------------------------------------------------------------|
|-----14---15----14---15----8-7----------14---15-----8---10--|
|--00----0----00----0----00-----10-8--00----0----00--8---10--|
|--00----0----00----0----00-----------00----0----00--8---10--|
   ..    .    ..    .    ..           ..    .    ..    

|-------------------------------------------------------|---------------------------------------------------|
|-------------------------------------------------------|---------------------------------------------------|
|-------------------------------------------------------|---------------------------------------------------|
|----------------14/15---------------------15-14--------|----------------14/15---------------8-7-10-8-7-----|
|-------------------------13/12------15-13-------15-13--|-------------------------13/12-----------------10--|
|--12--12-12-12--------12--------000--------------------|--12--12-12-12--------12--------000----------------|
   .   .  .  .         .         ... .  .        .  .      .   .  .  .         .         ...   
 
|-----------------------------------|
|-----------------------------------|
|-----------------------------------|
|-----------------------------------|
|--------7h8---8----------8-7-5-----|
|--8-888-----8----555-555-------10--|
   . ...     .    ... ...

Breakdown 1
|--------------------------------------------------------|
|--------------------------------------------------------|
|--------------------------------------------------------|
|--------------------------------------------------------|
|--000-000---00---000-000-----000-000---00---000-000--/--|
|--000-000---00---000-000-----000-000---00---000-000--/--|
   ... ...   ..   ... ...     ... ...   ..   ... ...

Breakdown 2 (slow breakdown)
|-----------------------------------|
|-----------------------------------|
|-----------------------------------|
|--------------------------------1--|
|--000-000-00>-----000-000-00>-0-1--|
|--000-000-00>-----000-000-00>-0-1--|
   ... ... ..      ... ... ..  .

 Verse 2
|--------------------------------------------------------------------------------------|
|--------------------------------------------------------------------------------------|
|-----17-17-17-17—-(---17-17-17-17)------------17-17-17-17---(---17-17-17-17)----------|
|-----x--x--x--x---(---x--x--x--x-)------------x--x--x--x----(---x--x--x--x-)----------|
|--00-15-15-15-15--(00-15-15-15-15)---000---00-15-15-15-15---(00-15-15-15-15)---3-2-1--|
|--00--------------(00------------)---000---00---------------(00------------)---3-2-1--|
   ..               ..                ...   ..                ..                . . .

|--------------------------------------------------------------------------|
|--------------------------------------------------------------------------|
|--------------------------------------------------------------------------|
|--------------------------------------------------------------------------|
|--000-8-0-8h10-0-7-0-8p7p0-0-10p0-8p0-000-8-0-8h10-0-7-0-8p7p0-0-3p0-5p0--|
|--000---0------0---0-------0----------000---0------0---0-------0----------|
   ...   .      .   .       .          ...   .      .   .       .

|-------------------------------------------------------------------------------------|
|-------------------------------------------------------------------------------------|
|-------------------------------------------------------------------------------------|
|---------------------------------------------------------------------------------0>--|
|--000-12-0-12h13-0-10-0-12p10p0-0-13p0-12p0-000-12-0-12h13-0-10-0-12p10p0-3-2-1--0>--|
|--000----0-------0----0---------0-----------000----0-------0----0---------3-2-1--0>--|
   ...    .       .    .         .           ...    .       .    .         . . .

Interlude
 (clean)
|---------------------------------------------------------------|
|---------------------------------------------------------------|
|------7-------7------10--9---5-------7-------7------10--12--5--|
|---------------------x---x---x----------------------x---x---x--|
|----5---5---5---5----8---7---3-----5---5---5---5----8---10--3--|
|--0-------0-------0--0---0---0---0-------0-------0--0---0---0--|

  2nd time palm mute
|--------------------------------|
|--------------------------------|
|------10--9---5------10--12--5--|
|--0---x---x---x--0---x---x---x--|
|--0---8---7---3--0---8---10--3--|
|--0--------------0--------------|

(clean)
|--------------------------------|
|--------------------------------|
|------7-------7------10--9---5--|
|---------------------x---x---x--|
|----5---5---5---5----8---7---3--|
|--0-------0-------0--0---0---0--|

Blastbeat
|-----------------------------------|
|-----------------------------------|
|-----------------------------------|
|-----------------------------------|
|-----------------------------------|
|--5-1-0-3-1-0-5-1-0-3-1-0-1-0-3-0--|
   . . . . . . . . . . . . . . . .

Mosh riff
|-----------------------------------|-----------------------------------|-------------------------------------|
|-----------------------------------|-----------------------------------|-------------------------------------|
|-----------------------------------|-----------------------------------|-------------------------------------|
|-----------------------------------|-----------------------------------|-------------------------------------|
|-----------------------------------|-----------------------------------|-------------------------------------|
|--5-1-0-3-1-0-5-1-0-3-1-0-1-0-3-0--|--5-1-0-3-1-0-5-1-0-3-1-0-1-0-3-0--|--8-7-0-10-0-8-0-0-8-7-0-10-0-8-0-0--|





|-----------------------------------|-----------------------------------|-------------------------------------|
|-----------------------------------|-----------------------------------|-------------------------------------|
|-----------------------------------|-----------------------------------|-------------------------------------|
|-----------------------------------|-----------------------------------|--8-7-0-10-0-8-0-0-8-7-0-10-0-8-0-0--|
|-----------------------------------|-----------------------------------|-------------------------------------|
|--5-1-0-3-1-0-5-1-0-3-1-0-1-0-3-0--|--5-1-0-3-1-0-5-1-0-3-1-0-1-0-3-0--|-------------------------------------|


|-----------------------------------------|
|-----------------------------------------|
|-----------------------------------------|
|--12-10-0-13-0-12-0-0-12-10-0-13-12-0-0--|
|-----------------------------------------|
|-----------------------------------------|


|-------------------------------5^--|
|-------------------------------5^--|
|-------------------------------5^--|
|--13-0-0-12-0-0-10-0-0-8-0-0-------|
|-----------------------------------|
|-----------------------------------|

Outro
|---------------------------------------------------------------|
|---------------------------------------------------------------|
|---------------------------------------------------------------|
|---------------------------------------------------------------|
|--5-1-0-3-1-0-5-1-0-3-1-0---5-1-0-3-1-0-5-1-0-3-1-0---5-3-1-0--|
|--5-1-0-3-1-0-5-1-0-3-1-0-----1-0-3-1-0---1-0-3-1-0---5-3-1-0--|
Tap to rate this tab
 
# A B C D E F G H I J K L M N O P Q R S T U V W X Y Z