Song name
# A B C D E F G H I J K L M N O P Q R S T U V W X Y Z

Misc Unsigned Bands - Element Of Surprise - Nighmare tab

Help us improve GuitareTab! Take a short survey!
This is 100% mabilio cause I am the awesmoe El Nolanos in Element of Surprise!

Tuning: Standard

Intro- Various Feedback Noises w/ harmonics

Then...
|----------------------------|
|----------------------------|
|--------4------------44-----|
|-2--4-5-4--5--2--4-5-44-5-4-|
|-2--4-5-2--5--2--4-5-22-5-4-|
|-0--2-3----3--0--2-3----3-2-|x4

Verse:
|-0~----2~--------------------------------|
|-0~----3~--------------------------------|
|-0~----4~------------4------------44-----|
|-2~----4~-----2--4-5-4--5--2--4-5-44-5-4-|
|-2~----2~-----2--4-5-2--5--2--4-5-22-5-4-|
|-0~-----------0--2-3----3--0--2-3----3-2-|x4

Choruse

|----------------------------------------------------|
|----------------------------------------------------|
|-99--9-9--9--1212--12-12--12--77--7-7--7-99--9-9--9-|
|-xx--x-x--x---x-x---x--x---x--xx--x-x--x-xx--x-x--x-|
|-77--7-7--7--1010--10-10--10--55--5-5--5-77--7-7--7-|
|----------------------------------------------------|x3

|-----------------------------------------|
|-----------------------------------------|
|-99--9-9--9--1212--12-12--12--77--7-7--7-|
|-xx--x-x--x---x-x---x--x---x--xx--x-x--x-|
|-77--7-7--7--1010--10-10--10--55--5-5--5-|
|-----------------------------------------|

Verse (same as last)
Chorus (same as last)

Introspective Bridge (feedback) end with E

Solo Beginning

|----------------|
|----------------|
|-7-9-10--10979~-|
|----------------|
|----------------|
|----------------|

Solo play 2x
Note: The notes are all bujumbled up cause it's really fast and there are 10's 11's and 
in there. 2nd guitar (Matt) plays the chords really fast.
  D                 C               D                 E
|--------------------------------------------------------------------------|
|--------------------------------------------------------------------------|
|-777799771010779977555577559955775577779977101077997799991111991212991111-|
|--------------------------------------------------------------------------|
|--------------------------------------------------------------------------|
|--------------------------------------------------------------------------|

Solo end
|----------------|
|----------------|
|-7-9-10--10979~-|
|----------------|
|----------------|
|----------------|

Bridge
|-------------------------------------------------------------|
|-------------------------------------------------------------|
|-------------------------------------------------------------|
|-2-2---2-2---2-2---2-22222222-2-2---2-2-2^--2-2---2-22222222-|
|-2-2---2-2---2-2---2-22222222-2-2---2-2-----2-2---2-22222222-|
|-0-0---0-0---0-0---0-00000000-0-0---0-0-----0-0---0-00000000-|x2
pm.     .     .     . ........ .     .       .     . ........

Chorus: same as before but Nolan Plays the 1st 2 chords by himselfs.

Outro: Same as intro. end on E

Very outro: Make Monkey sounds like Graham.
We are EOS but our pure volume account is purevolume.com/bypopulardemand
myspace.com/elementofsurpriserock
Hear this song on pure volume.
Chow
Related for Element Of Surprise - Nighmare tab