Song name
# A B C D E F G H I J K L M N O P Q R S T U V W X Y Z

Misc Unsigned Bands - One Man Empire - Dictator tab

Play in medium overdrive.

E------------------------------------------------------------------------|
B------------------------------------------------------------------------|
G---------------9-7---7-11------------------9-7---7-7--------------------|
D-------5-9-7-------9---------------5-9-7-------9------------------------|
A-7-7-7-----------------------7-7-7--------------------------------------|
E------------------------------------------------------------------------| X2

E------------------------------------------------------------------------|
B------------------------------------------------------------------------|
G---------------9-7---7-11------------------9-7--------------------------|
D-------5-9-7-------9---------------5-9-7-------9---7---5----------------|
A-7-7-7-----------------------7-7-7-------------------------7------------|
E------------------------------------------------------------------------|

It'll sound good when you get it to the right rythm.
Hope you enjoy!
Tap to rate this tab
# A B C D E F G H I J K L M N O P Q R S T U V W X Y Z