Song name
# A B C D E F G H I J K L M N O P Q R S T U V W X Y Z

Misc Unsigned Bands - Recipe For A Hurricane - Two Left Feet tab

Help us improve GuitareTab! Take a short survey!
e-------------------------------------------2--2--0--0-------------------|
b-------------------------------------------3--3--1--1-------------------|
g-------------------------------------------2--2--0--0-------------------|
d----0h2-2------------------0h2-2--2--2--2--0--0--2--2-------2-----0h2---|x2
a-0h2----2--let ring-----0h2----2--2--2--2--------3--3--3-2--2--0h2------|
e--------0----------------------0--0--0--0-------------------0-----------|

e--------------------------------------------------------------|
b--------------------------------------------------------------|
g--------------------------------------------------------------|
d--2-2-2-2------0h2-2-2-2-2-----0h2-2-2-2-2-----0h2------------| x3
a--2-2-2-2---0h2----2-2-2-2--0h2----2-2-2-2--0h2---------------|
e--0-0-0-0----------0-0-0-0---------0-0-0-0--------------------|

 There's a legend about a guy named Agrian,
 He was a knight of the dance,
 A sword he could wield, nay the dance!

e-----------------|
b-----------------|
g-----------------|
d---5------2------|
a---5------2------|
e---3------0------|

    Smite!

D                                   C       G
he could not prove his worth to his spectators
D                          C   G
he relied heavliy on the swor-rd
            > repeat this four times.                              <
e-------3----2-2-2-2------0-------0-------0--0-----2--2--2------0-----------|
b-------3----3-3-3-3------0-------0-------0--0-----3--3--3------0-----------|
g-------0----2-2-2-2--2/1-1-----1-1-----1-1--1-1/2-2--2--2--2/1-1-----------|
d-------0----0-0-0-0------2-0h2---2--0h2--2--2-----0--0--0------2-----------|
a-0h2-0-2-----------------2-------2-------2--2------------------2-----------|
e-------3-----------------0------------------0------------------0-----------|
Related for Recipe For A Hurricane - Two Left Feet tab