Song name
# A B C D E F G H I J K L M N O P Q R S T U V W X Y Z

Misc Unsigned Bands - Attitude With A Twist - Let Me In tab

-------------------------------------------------------------------------------
			     Let me in - Attitude With A Twist
-------------------------------------------------------------------------------
Tabbed by: Cody
Email: Codered36@hotmail.com

Tuning: regular
Verse
e|---------------------------------------------------------------------------------|
B|---------------------------------------------------------------------------------|
G|---------------------------------------------------------------------------------|
D|----3210-------------------------------------------------------------------------|
A|--00-----------------------------------------------------------------------------|
E|-0-------------------------------------------------------------------------------|
Chorus
e|-----------------------------------------------------------------------------------|
B|--------------0-0-0-0-0-0----------------------------------------------------------|
G|-------------0-0-0-0-0-0-----------------------------------------------------------|
D|-----------------------------------------------------------------------------------|
A|-----------------------------------------------------------------------------------|
E|-----------------------------------------------------------------------------------|
Verse- repeat with words
chorus
verse
chorus/outro


check us out at myspace.com look us up in the band search
Attitude with a twist
Tap to rate this tab
# A B C D E F G H I J K L M N O P Q R S T U V W X Y Z