Song name
# A B C D E F G H I J K L M N O P Q R S T U V W X Y Z

Misc Unsigned Bands - Method 68 - Everybody Likes A Blonde Girl Thats Willing To Take Her Top Off For Less Than A Fiver tab

this is the new song with a name as long as the lyrics!, Everybody likes a blonde girl 
willing to take her top off for less than a fiver, or Topless (a bit easier to say,lol,) 
68 will release this by January next year...

Intro

[-----------------------------]
[-----------------------------]
[-----------------------------]
[--------5555-7777------------]
[---7777-3333-5555-1111----7--]
[---5555---------------13/55--]x2

Verse

[------------------------------]
[------------------------------]
[------------------------------]
[----------555555-777777-33333-]
[---777777-333333-555555-11111-]
[---555555---------------------]x4

Chorus

[---------------------33333333----------]
[---------------------33333333----------]
[------------55555555-00000000-333-33-3-]
[---77777777-55555555-00000000-333-33-3-]
[---77777777-33333333----------111-00-1-]
[---55555555----------33333333----------]

1st Solo

[--------------------------------------------------------------------------]
[--------------------------------------------------------------------------]
[--------------------------------------------------------------------------]
[---77777777777--------777777777--------------10--10--------------------19-]
[---77777777777-77753--777777777-77753-3571012--12--12/1719-192219221922---]
[---55555555555------5-555555555------5------------------------------------]

[----------------------------]
[----------------------------]
[----------------------------]
[---19/7(pick slide)---------]
[-------------------75--7-7~-]
[---------------------85-55~-]

Coda

[--------------]   [-------------------------]
[--------------]   [-------------------------]
[--------55773-]   [-------------------------]
[---7777755773-]   [---77777777777777777777--]
[---7777733551-]   [---77777777777777777777--]
[---55555------]x3 [---55555555555555555555--]

2nd solo

[-------------------------------------------------------------151720172022-]
[-------------------------------------------------------131517-------------]
[----------57-7(7)5-5--75---------------------------1214-------------------]
[------5757--------7-----75-------------------101214-----------------------]
[---5/7--------------------765------------1012-----------------------------]
[-----------------------------81012121212----------------------------------]

[---2220--20222017----------------------------------------]
[-------22--------19-17-----------------------------------]
[----------------------191719/21-211917-------------------]
[--------------------------------------1917191719191919~--]
[---------------------------------------------------------]
[---------------------------------------------------------]

Outro

[-------------------------------------------------]
[-------------------------------------------------]
[-------------------------5555555555--------------]
[---77777777--------------5555555555--------------]
[---77777777--------------3333333333-58585858-7~--]
[---55555555-710710710710---------------------5~--]

I only spent 10 pounds,
i couldn't believe what i had found,
I felt like i was in heaven,
at 10:11... Last Night!!!

I couldn't believe my eyes,
It was such a suprise,
Now it's over for another night,
Haha! though what a sight!

But come on seriously,
There is nothin' betta' to see,
These blonde girls,
sittin' with me

Oh! can't resist it somehow,
I;ve gotta' go back there now,
I'm sure they like me for me,
and not my hard earned money

I guess i was wrong,
to write this song,
about those blonde girls,
i'm sure there's someone out there for me,
that doesn't end in tragedy,
someone who likes me for me...

Somebody that is Free!!!!

I only spent 10 pounds,
i couldn't believe what i had found,
I felt like i was in heaven,
at 10:11... Last Night!!!

I couldn't believe my eyes,
It was such a suprise,
Now it's over for another night,
Haha! though what a sight!

But come on seriously,
There is nothin' betta' to see,
These blonde girls,
sittin' with me

Oh! can't resist it somehow,
I;ve gotta' go back there now,
I'm sure they like me for me,
and not my hard earned money

thats it.
Tap to rate this tab
# A B C D E F G H I J K L M N O P Q R S T U V W X Y Z