Song name
# A B C D E F G H I J K L M N O P Q R S T U V W X Y Z

Misc Unsigned Bands - A Dying Remberance - Demo1 tab

-------------------------------------------------------------------------------
			     SONG NAME - Band Name
-------------------------------------------------------------------------------
Tabbed by:ari g
Email:

Tuning:C G C F A D

  INTRO:clean
d|----------------------------------------------------------|
a|------------------------------------------(X2)------------|
f|--------5-4-------5-4-------5-4------5-4-----------4------|
c|---2-2-2-----2-2-2-----2-2-2----2-2-2-----------4-5-5-4~--|
g|--3-3-3-----3-3-3-----0-0-0----0-0-0----------------------|
c|----------------------------------------------------------|
    xxxxxx    xxxxxx    xxxxxx   xxxxxx
|---------------------------------------------------------------------------|
|---------------------------------------------------------------------------|
|------5-4-----5-4-----5-4-----5-4-----5-4-----5-4-----5-4-----5-4----------|
|-00000---00000---11111---11111---44444---44444---55555---55555----0~-------|
|-00000---00000---11111---11111---44444---44444---55555---55555----0~-------|
|-00000---00000---11111---11111---44444---44444---55555---55555----0~-------|
  xxxxx   xxxxx   xxxxx   xxxxx   xxxxx   xxxxx   xxxxx   xxxxx

brake down:distortion
|---------------------------------------------------------------------|
|---------------------------------------------------------------------|
|---------------------------------------------------------------------|
|-000000-1-000000-3-000000-4-000000-3-(x2)----------------------------|
|-000000-1-000000-3-000000-4-000000-3---------------------------------|
|-000000-1-000000-3-000000-4-000000-3---------------------------------|
  xxxxxx   xxxxxx   xxxxxx   xxxxxx
Chours:distortion
|-----------------------------------------------------------------------------|
|-----------------------------------------------------------------------------|
|-10(X12)---------------------------------------------------------------------|
|-x-------3(x5)2(x5)----------------------------------------------------------|
|-8-------3----2--------------------------------------------------------------|
|---------3----2--------------------------------------------------------------|

brake down:distortion
|---------------------------------------------------------------------|
|---------------------------------------------------------------------|
|---------------------------------------------------------------------|
|-000000-1-000000-3-000000-4-000000-3-(x2)----------------------------|
|-000000-1-000000-3-000000-4-000000-3---------------------------------|
|-000000-1-000000-3-000000-4-000000-3---------------------------------|
  xxxxxx   xxxxxx   xxxxxx   xxxxxx

Chours:distortion
|-----------------------------------------------------------------------------|
|--------------------(x3)-----------------------------------------------------|
|-10(X12)---------------------------------------------------------------------|
|-x-------3(x5)2(x5)----------------------------------------------------------|
|-8-------3----2--------------------------------------------------------------|
|---------3----2--------------------------------------------------------------|

pre-chours: clean
|-----------------------------------------------------------------------------|
|------10----------10---------------------------------------------------------|
|------10----------10---------------------------------------------------------|
|-88888-------66666----------8------------------------------------------------|
|-88888--(x2)-66666-----(x2)-8-(x20)------------------------------------------|
|-88888-------66666----------8------------------------------------------------|

 Outro:distortion
------------------------------------------------------------------------------|
|-----------------------------------------------------------------------------|
|-10-------1010999-10---------------------------------------------------------|
|-x-(x25)--x-x-xxx-x-let ring~------------------------------------------------|
|-8--------8-8-777-8----------------------------------------------------------|
|-----------------------------------------------------------------------------|

|---------------------------------------------------------------------------|
|---------------------------------------------------------------------------|
|---------------------------------------------------------------------------|
|---------------------------------------------------------------------------|
|---------------------------------------------------------------------------|
|---------------------------------------------------------------------------|


| /  slide up
| \  slide down
| h  hammer-on
| p  pull-off
| ~  vibrato
| +  harmonic
| x  Mute note
===============================================================================
Tap to rate this tab
# A B C D E F G H I J K L M N O P Q R S T U V W X Y Z