Song name
# A B C D E F G H I J K L M N O P Q R S T U V W X Y Z

Misc Unsigned Bands - Seri Langerock - Personalized Blues Riff tab

-----------------------|
-----------------------|
-----------------------|
-----------------------|   x4
-2-2--4-4--2-2--4-4----|
-0-0--0-0--0-0--0-0----|

-----------------------|
-----------------------|
-----------------------|
-2-2--4-4--2-2--4-4----|   x2
-0-0--0-0--0-0--0-0----|
-----------------------|

-----------------------|
-----------------------|
-----------------------|
-----------------------|   x2
-2-2--4-4--2-2--4-4----|
-0-0--0-0--0-0--0-0----|

--------------------|
--------------------|
--------------------|
-4-4--6-6--4-4--6-6-|
-2-2--2-2--2-2--2-2-|
--------------------|

--------------------|
--------------------|
--------------------|
-2-2--4-4--2-2--4-4-|
-0-0--0-0--0-0--0-0-|
--------------------|

-----------------------|
-----------------------|
-----------------------|
-----------------------|   x3
-2-2--4-4--2-2--4-4----|
-0-0--0-0--0-0--0-0----|

-------------------|
-------------------|
-------------------|
-------------------|
---0-1-2-----------|
-0-------2b-0------|
Tap to rate this tab
 
# A B C D E F G H I J K L M N O P Q R S T U V W X Y Z