Song name
# A B C D E F G H I J K L M N O P Q R S T U V W X Y Z

Misc Unsigned Bands - Goodbye For Now - Swallow Your Tongue tab

-------------------------------------------------------------------------------
			     SWALLOW YOUR TONUGE - Goodbye For Now
-------------------------------------------------------------------------------
Tabbed by: Chris Moran - Goodbye For Now
Email:chrisisdabombuk@hotmail.com

Tuning: Drop D

* = Palm Mute
! = Instant Pause
... = Let Ring

Distortion - Part 1

E---------------------------------|
B------666-----666-----666--------|
G------999-----999-----999--------|
D--000-----000-----000-----3532320|     x2
A--000-----000-----000------------|
D--000-----000-----000------------|
   ***     ***     ***

Clean - Verse 1

E-------------------------|                      
B-------------------------|                         
G-----7-----6-----4-----4-|                    
D------9-----7-----5-----5|     x2                     
A-------------------------|                    
D--999---777---555---555--|

Clean - Chorus 1

E--------------------------------|
B--------------------------------|
G----------11------6-----4-----4-|
D------------12-----7-----5-----5|     x2
A--------------------------------|
D--12-12-12-----777---555---555--|

Distortion - Part 2

E---------------------------------|
B------666-----666-----666--------|
G------999-----999-----999--------|
D--000-----000-----000-----3532320|     x2
A--000-----000-----000------------|
D--000-----000-----000------------|
   ***     ***     ***

Clean - Verse 2

E-------------------------|                      
B-------------------------|                         
G-----7-----6-----4-----4-|                    
D------9-----7-----5-----5|     x2                     
A-------------------------|                    
D--999---777---555---555--|

Clean - Chorus 2

E--------------------------------|
B--------------------------------|
G----------11------6-----4-----4-|
D------------12-----7-----5-----5|     x2
A--------------------------------|
D--12-12-12-----777---555---555--|

Distortion - Verse 3

E------------------------------------------------!----------------|
B------666-----666-----666--------------666-----6!----666---------|
G------999-----999-----999--------------999-----9!----999---------|
D--000-----000-----000-----3532320--000-----000--!-000-----3532320|
A--000-----000-----000--------------000-----000--!-000------------|
D--000-----000-----000--------------000-----000--!-000------------|
   ***     ***     ***              ***     ***    ***

E------------------------------------------------!---------------------|
B------666-----666-----666--------------666-----6!----666--------------|
G------999-----999-----999--------------999-----9!----999--------------|
D--000-----000-----000-----3532320--000-----000--!-000-----3532320-0...|
A--000-----000-----000--------------000-----000--!-000-------------0...|
D--000-----000-----000--------------000-----000--!-000-------------0...|
   ***     ***     ***              ***     ***    ***             

Clean - Bridge

E------------------------------------------------------------------------------|
B------------------------------------------------------------------------------|
G---76---76---76---76--76---76---76---76--76---76---76---76--76---76---76---76-|
D-----7----7----7----7---7----7----7----7---7----7----7----7---7----7----7----7|
A------------------------------------------------------------------------------|
D--9----9----9----9---7----7----7----7---5----5----5----5---5----5----5----5---|

E---------------------------------------------------------------------|
B---------------------------------------------------------------------|
G---76---76---76---76--76---76---76---76------------------------------|
D-----7----7----7----7---7----7----7----7-5555555555555555555555555555|  <-- (There are 28 there)
A-----------------------------------------5555555555555555555555555555|
D--9----9----9----9---7----7----7----7----5555555555555555555555555555|
                                          *(Get louder & gradually un-palm mute)

Distortion - Part 3

E---------------------------------|
B------666-----666-----666--------|
G------999-----999-----999--------|
D--000-----000-----000-----3532320|     x2
A--000-----000-----000------------|
D--000-----000-----000------------|
   ***     ***     ***
E---------------!--------------!|
B------666-----6!-----666-----6!|
G------999-----9!-----999-----9!|
D--000-----000--!-000-----000--!|
A--000-----000--!-000-----000--!|
D--000-----000--!-000-----000--!|
   ***     ***    ***

===============================================================================
Tap to rate this tab
 
# A B C D E F G H I J K L M N O P Q R S T U V W X Y Z