Song name
# A B C D E F G H I J K L M N O P Q R S T U V W X Y Z

Misc Unsigned Bands - Romance In Pieces - Nos Chagrin tab

Romance In Pieces "R.I.P."--Nos Chagrin
tabbed by athsmador

ok i made this as a joke cuz this band SUCKS
they cant play their instruments they think thet are hardcore and their songs are out of key!!!!!!

E|-------------------------------|
B|-------------------------------|
G|-------------------------------|
D|---0-1---0-1---0-1---0-1-------|
A|-------------------------------|
E|-3-----3-----3------3----------|

E|----------------------|
B|----------------------|
G|----------------------|
D|---0-3----0-3---------|
A|----------------------|
E|-3------3-------------|


play that a few times
then the song does the signature frizzy thing---where it stops all of a sudden and there 
a totally different part
just slam a g chord i guess

btw this band changed their name to Apollo In Flames
look at how gay they are at www.myspace.com/apolloinflamesband
Tap to rate this tab
# A B C D E F G H I J K L M N O P Q R S T U V W X Y Z