Song name
# A B C D E F G H I J K L M N O P Q R S T U V W X Y Z

Misc Unsigned Bands - Red Day - Isoleringscellen tab

Artist: Red Day
Album: En Resa i Jhide
Year: 1997
Composer: Emobög
Tuning: Normal

~  = Let ring
fb = Full Bend
x  = Palm Mute
h  = Hammer on

Intro (Clean guitar)

--5------5----5-----5------5-----------5--------5----5~---|
----6------6----6-----6------5-------6---6----5---5--5~---|
------5------5----5------6------6--7--------5--------5~---|
----------------------------------------------------------|
----------------------------------------------------------|
----------------------------------------------------------|

Verse (Clean Guitar)

Min tid i isoleringscellen.... (Start play when Emobög sings "isoleringscellen")

------------------------------------|
------------------------------------|
-----------7-----------7------------|   And repeat
--5---3----7---7----5--7---7--------|
--5---3----5---7----5--5---7--------|
--3---1--------5----3------5--------|


Chrous:

Jag hade det skit...

Use a footswitch and swith between dist and clean, over and over again, and strum this 
the time.

------|
------|
------|
--5---|
--5---|
--3---|

Then, use distortion.

--------------|
--------------|
--7-----------|
--7-7--3--5---|
--5-7--3--5---|
----5--1--3---|


Then play verse again, but with distortion this time.

Outro:

----------------------1h5fb----|
-------------------------------|
-------------------------------|
--9---7---5-4-2----------------|
--9---7---5-4-2----------------|
--7---5---3-2-0----------------|
          x x x


That's it! Find something wrong, please send me a mail to "firstbloodman@hotmail.com" ;)
Tap to rate this tab
# A B C D E F G H I J K L M N O P Q R S T U V W X Y Z