Song name
# A B C D E F G H I J K L M N O P Q R S T U V W X Y Z

Misc Unsigned Bands - House Of Zatizfaktion - Classical Heros tab

Yeap, this is like my third tab, so be nice.


Intro
D|------3-------0-------2h3p2-------------------------------|
A|-----3-3-----1-3-----3-----3------------------------------|
F|----0---0---0---0---2-------2----0---------------------1--|
C|---0-----0-2-----2-0---------4----2p0h3/5-5--/7--7\5-3-2--|
G|--2-------3-------0-----------3p0---------5p4/6--6\4-3-2--|
C|----------------------------------------------------------|


Verse
D|--x-x-x-x-x-x---|-x-|-2-|-3-|
A|--x-x-x-x-x-x---|-2-|-3-|-3-|
F|--1-1-x-1-x-1--o|-2-|-2-|-x-|
C|--2-2-x-2-x-2--o|-2-|-x-|-x-|
G|--2-2-x-2-x-2---|-x-|-x-|-2-|
C|--x-x-x-x-x-x---|-x-|-x-|-3-|


this is what I have so far. It's late, I'm hitting the sheets, I'll put more up later.

NoWhiteHeros222

^aim^
Tap to rate this tab
# A B C D E F G H I J K L M N O P Q R S T U V W X Y Z