Guitaretab - guitar tabs
Song name
# A B C D E F G H I J K L M N O P Q R S T U V W X Y Z

Misc Unsigned Bands - Gang-st1 - Aldimand tab

-----------------------------------------------------------------------------
			     Aldimand  Gang-ST1
-----------------------------------------------------------------------------
Tabbed by: Washo

Gang-ST1 myspace: www.myspace.com/gangst1

Tuning:EADGBe

[Intro]
e|---------|
B|---------|
G|---------| 3 Times
D|---------|
A|---------|
E|-0~~~----|

e|-----------------------------------------|
B|-----------------------------------------|
G|-----------------------------------------| 2 Times
D|----7--7-9-9-12/11/12/11/12/11-7-7/9-9--|
A|-9--5--5-7-7-10/9 /10/9 /10/9--5-5/7-7--|
E|-7---------------------------------------|

[Vers] Hej med dig dit kvaj..
e|----------------------------------------|
B|----------------------------------------|
G|----------------------------------------| 2 Times
D|----------------------------------------|
A|----5--5-7-7---10-9-10-9-10-9--5-5-7-7--|
E|-7--------------------------------------|

e|-----------------------------------------|
B|-----------------------------------------|
G|-----------------------------------------| 1 Times
D|----7--7-9-9-12/11/12/11/12/11-7-7/9-9--|
A|-9--5--5-7-7-10/9 /10/9 /10/9--5-5/7-7--|
E|-7---------------------------------------|

[Vers] Jeg kan skaffe alt..
e|----------------------------------------|
B|----------------------------------------|
G|----------------------------------------| 2 Times
D|----------------------------------------|
A|----5--5-7-7---10-9-10-9-10-9--5-5-7-7--|
E|-7--------------------------------------|

[Break]
e|----------------------------|
B|----------------------------|
G|----------------------------| 2 Times
D|----------------------------|
A|-----5----------------------|
E|-7-7---7-6-5-5-5-0h4-5-5-6--|
[ Tab from: http://www.guitaretab.com/m/misc-unsigned-bands/88091.html ]
e|-----------------------------------------|
B|-----------------------------------------|
G|-----------------------------------------| 2 Times
D|----7--7-9-9-12/11/12/11/12/11-7-7/9-9--|
A|-9--5--5-7-7-10/9 /10/9 /10/9--5-5/7-7--|
E|-7---------------------------------------|

[Vers] Alt andet det er plat..
e|----------------------------------------|
B|----------------------------------------|
G|----------------------------------------| 2 Times
D|----------------------------------------|
A|----5--5-7-7---10-9-10-9-10-9--5-5-7-7--|
E|-7--------------------------------------|

[Pre-solo]
e|-------------------------|          
B|-------------------------| 
G|-------------------------| 2 Times
D|------------------7-8-9--|
A|-9-9------7-7-8-9--------|
E|-7-7-7-10----------------|

e|-------------------------|
B|-------------------------|
G|-------------------------| 2 Times
D|-11-9--------------------|
A|------11-10-9-7----------|
E|----------------7-7-9-9--|

[Solo]
e|---------------------------------------------------------|
B|---------------------------------------------------------|
G|---------------------------------------9-9---------------|
D|----------------------------9--------------11-9----9-11--|
A|-----7-7-9-7---7-9/11-11-11---11-9-11-----------11-------|
E|-7-9---------9-------------------------------------------|

[Solo, continued] (Jingle bell part)
e|----------------------------------------------------|
B|----------------------------------------------------|
G|----------------------------------------------------|
D|-6-6-6--6-6-6--6-9-----6-7-7-7--7-7-6-6-----6---9--|
A|-------------------7-9-------------------9-9---9----|
E|----------------------------------------------------|

[End of solo and song]
e|-------------------------|
B|-------------------------|
G|-------------------------| 2 Times
D|-11-9--------------------|
A|------11-10-9-7----------|
E|----------------7-7-9-9--|



Related for Gang-st1 - Aldimand tab