Guitaretab - guitar tabs
Song name
# A B C D E F G H I J K L M N O P Q R S T U V W X Y Z

Misc Unsigned Bands - Gang-st1 - Boten Anna tab

-----------------------------------------------------------------------------
			     Boten Anna  Gang-ST1
-----------------------------------------------------------------------------
Tabbed by: WASHO!
Gang-ST1 myspace: www.myspace.com/gangst1

Tuning:EADGBe
[ Tab from: http://www.guitaretab.com/m/misc-unsigned-bands/88095.html ]
   Am       C         G          C    G
e|------------------------------------------|
B|---1---1----1----1----0----0------1----0--|
G|---2---2----0----0----0----0------0----0--|
D|---2---2----2----2----0----0------2----0--|
A|-0---0----3----3----------------3---------|
E|--------------------3----3-----------3----|

Repeat that through the whole song, and then end the song on Am
Related for Gang-st1 - Boten Anna tab