Song name
# A B C D E F G H I J K L M N O P Q R S T U V W X Y Z

Misc Unsigned Bands - Pork Pennys - Baby Wine tab

Pork Pennys

Baby Wine


Intro
e----------------------------|
B----------------------------|
G----------------------------|
D-5--5-------------------2-2-|
A-5----5-------4-4-----2-2-2-|
E-3------3-3-3-----0-0-0-0-0-|


Verse\Chorus (chorus is played a little bit faster
e----------------------------|
B----------------------------|
G----------------------------|
D-5--5---------4---------2---|
A-5--5-5---5---4-4-----2-2-2-|
E-3----3-3-3-3---2-0-0-0---0-|
Tap to rate this tab
# A B C D E F G H I J K L M N O P Q R S T U V W X Y Z