Song name
# A B C D E F G H I J K L M N O P Q R S T U V W X Y Z

Misc Unsigned Bands - Silent Sounds - Ready Far tab

Ready Far
Silent Sounds
Tuning Standard

Tabbed by xxxxxxxxx
Intro:
--------6------------4------------2------------1----|
--------7------------6------------4------------3----|
--------8------------6------------4------------3----|  x4
-----8------------6------------4------------3-------|
--6------------4------------2------------1----------|
----------------------------------------------------|


Verse:
--------6------------x------------3------------x----|
--------8------------6------------4------------3----|
--------8------------7------------5------------4----|
-----8---------------8---------5---------------5----|
--6---------------8---------3---------------5-------|
---------------6-------------------------3----------|

--------x------------6------------x-----------------|
--------4------------8------------6-----------------|
--------5------------8------------7-----------------|
--------6---------8---------------8-----------------|
-----6---------6---------------8--------------------|
--4-------------------------6-----------------------|

Riff:
-3--3-x-3-x-3-3-3-3---1--1-x-1-x-1-1-1-1----------------------|
-4--4-x-4-x-4-4-4-4---3--3-x-3-x-3-3-3-3---4--4-x-4-x-4-4-4-4-|
-3--3-x-3-x-3-3-3-3---3--3-x-3-x-3-3-3-3---5--5-x-5-x-5-5-5-5-|
-------------------------------------------5--5-x-5-x-5-5-5-5-|
--------------------------------------------------------------|
--------------------------------------------------------------|

-3--3-x-3-x-3-3-3-3-          --------------------------------|
-4--4-x-4-x-4-4-4-4-          -4--4-x-4-x-4-4-4-4-------------|
-5--5-x-5-x-5-5-5-5-  x2 Then -5--5-x-5-x-5-5-5-5-------------|
--------------------          -6--6-x-6-x-6-6-6-6-------------|
--------------------          --------------------------------|
--------------------          --------------------------------|

-3--3-x-3-x-3-3-3-3---1-----|
-4--4-x-4-x-4-4-4-4---3-x16-|
-3--3-x-3-x-3-3-3-3---3-----|
----------------------------|
----------------------------|
----------------------------|


Chorus:
-6---6---3---3---4---6---6--|
-8---6---4---3---4---8---6--|
-8---7---5---6---5---8---7--| x2 Strumming pattern's easy
-8---8---5---5---6---8---8--|      to figure out
-6---8---3---5---6---6---8--|
-----6-------3---4-------6--|

Go back to the riff and pick it for the
Drum + Guitar solo


Then Chorus again x3
Tap to rate this tab
# A B C D E F G H I J K L M N O P Q R S T U V W X Y Z