Song name
# A B C D E F G H I J K L M N O P Q R S T U V W X Y Z

Misc Unsigned Bands - Collaborated Thoughts - In Memory tab

----------------------------------------------------
|          IN MEMORY-A BLACK SECRET                |
----------------------------------------------------

Tabber: Kris "djmay71" May
Written By: Kris "djmay71" May

**Ok people, to search this tab, you still have to search 'Collaborated Thoughts', but 
rights to this song have been switched over to A Black Secret, which is the backing 
solo project from Collaborated Thoughts.**

Song-"In Memory"
Band-"A Black Secret"
Label- Unsigned

Guitar Setup:
Guitar 1,(eBGDAE),Acoustic

+Intro
e-------------|
B-------------|
G-------------|
D-2--4-5-4--2-|
A-2--4-5-4--2-|
E-------------|

+Riff
e----------------------|
B----------------------|
G----------------------|
D-2222--4444-5555-4444-|
A-2222--4444-5555-4444-|
E-0000--0000-0000-0000-|

+Bridge
e----------------------|
B----------------------|
G----------------------|
D--2-2---4-4--5-5--4-4-|
A-2-2---4-4--5-5--4-4--|
E----------------------|

+Outtro
e--------------------------|
B-0000--0000-0000-0000-----|
G-0000--0000-0000-0000-----|
D-2222--4444-5555-4444---2-|
A--------------------------|
E--------------------------|

Name    | # Of Times
----------------------
+Intro  |     1x
+Riff   |     5x
+Bridge |     1x
+Riff   |     5x
+Outtro |     1x
Tap to rate this tab
# A B C D E F G H I J K L M N O P Q R S T U V W X Y Z