Guitaretab - guitar tabs
Song name
# A B C D E F G H I J K L M N O P Q R S T U V W X Y Z

Misc Unsigned Bands - The Winchesters - Penny tab

                                  'PENNY'
                     words and music by The Winchesters 

The Winchesters are: 
                     Anthony Young     - Drums       
                     Chris Bignall     - Guitar
                     Michael Buckley   - Vox
                     Wayne Young       - Bass

Tabbed by: Christopher J, Bignall [UK]
E-mail   : www.the_winchesters@hotmail.co.uk
           www.myspace.com/wearethewinchesters
Tuning   : Standard EADGBE
Guitar 1 : Epiphone Casino through a Marshall AVTX Series AVT50X 
Chords   : 
                A   A*  Ab  Bm C#m  E   E7  F#  G6
           E |--5---0---4---2---4---0---0---2---0--|
           B |--5---2---4---3---5---0---3---2---0--|
           G |--6---2---5---4---6---1---1---3---0--|
           D |--7---2---6---4---6---2---2---4---0--|
           A |--7---0---6---2---4---2---2---4---x--|
           E |--5---x---4---x---x---0---0---2---x--|

INTRO/VERSE:

    F#                                A
E --2-2-2-2-2-2-2-2-2-2-2-2-2-2-2-2-/-5-5-5-5-5-5-5-5-5-5-5-5-5-5-5-5-\-|
B --2-2-2-2-2-2-2-2-2-2-2-2-2-2-2-2-/-5-5-5-5-5-5-5-5-5-5-5-5-5-5-5-5-\-|
G --3-3-3-3-3-3-3-3-3-3-3-3-3-3-3-3-/-6-6-6-6-6-6-6-6-6-6-6-6-6-6-6-6-\-|
D --4-4-4-4-4-4-4-4-4-4-4-4-4-4-4-4-/-7-7-7-7-7-7-7-7-7-7-7-7-7-7-7-7-\-|
A --4-4-4-4-4-4-4-4-4-4-4-4-4-4-4-4-/-7-7-7-7-7-7-7-7-7-7-7-7-7-7-7-7-\-|
E --2-2-2-2-2-2-2-2-2-2-2-2-2-2-2-2-/-5-5-5-5-5-5-5-5-5-5-5-5-5-5-5-5-\-|
    Gtr.1 [elec]

    E                    G6 A*     G6 F#
E --0-0-0-0-0-0-0-0-0-0--0--0-0-0--0--2-2---2-2-2---2-2-2---2-2-2---2---|
B --0-0-0-0-0-0-0-3-3-3--0--2-2-2--0--2-2---2-2-2---2-2-2---2-2-2---2---|
G --1-1-1-1-1-1-1-1-1-1--0--2-2-2--0--3-3---3-3-3---3-3-3---3-3-3---3---|
D --2-2-2-2-2-2-2-2-2-2--0--2-2-2--0--4-4---4-4-4---4-4-4---4-4-4---4---|
A --2-2-2-2-2-2-2-2-2-2-----0-0-0-----4-4---4-4-4---4-4-4---4-4-4---4---|
E --0-0-0-0-0-0-0-0-0-0---------------2-2-0h2-2-2-0h2-2-2-0h2-2-2-0h2---|

    F#                                A
E --2-2-2-2-2-2-2-2-2-2-2-2-2-2-2-2-/-5-5-5-5-5-5-5-5-5-5-5-5-5-5-5-5-\-|
B --2-2-2-2-2-2-2-2-2-2-2-2-2-2-2-2-/-5-5-5-5-5-5-5-5-8-8-8-8-8-8-8-8-\-|
G --3-3-3-3-3-3-3-3-3-3-3-3-3-3-3-3-/-6-6-6-6-6-6-6-6-6-6-6-6-6-6-6-6-\-|
D --4-4-4-4-4-4-4-4-4-4-4-4-4-4-4-4-/-7-7-7-7-7-7-7-7-5-5-5-5-5-5-5-5-\-|
A --4-4-4-4-4-4-4-4-4-4-4-4-4-4-4-4-/-7-7-7-7-7-7-7-7-7-7-7-7-7-7-7-7-\-|
E --2-2-2-2-2-2-2-2-2-2-2-2-2-2-2-2-/-5-5-5-5-5-5-5-5-5-5-5-5-5-5-5-5-\-|

    E                    G6 A*     G6 F#
E --0-0-0-0-0-0-0-0-0-0--0--0-0-0--0--2-2---2-2-2---2-2-2---2-2-2---2---|
B --0-0-0-0-0-0-0-3-3-3--0--2-2-2--0--2-2---2-2-2---2-2-2---2-2-2---2---|
G --1-1-1-1-1-1-1-1-1-1--0--2-2-2--0--3-3---3-3-3---3-3-3---3-3-3---3---|
D --2-2-2-2-2-2-2-2-2-2--0--2-2-2--0--4-4---4-4-4---4-4-4---4-4-4---4---|
A --2-2-2-2-2-2-2-2-2-2-----0-0-0-----4-4---4-4-4---4-4-4---4-4-4---4---|
E --0-0-0-0-0-0-0-0-0-0---------------2-2-0h2-2-2-0h2-2-2-0h2-2-2-0h2---|

CHORUS:

   C#m               Bm               F#                A
E -4-4-4-4-4-4-4-4-\-2-2-2-2-2-2-2-2--2-2-2-2-2-2-2-2-/-5-5-5-5-5-5-5-5-|
B -5-5-5-5-5-5-5-5-\-3-3-3-3-3-3-3-3--2-2-2-2-2-2-2-2-/-5-5-5-5-5-5-5-5-|
G -6-6-6-6-6-6-6-6-\-4-4-4-4-4-4-4-4--3-3-3-3-3-3-3-3-/-6-6-6-6-6-6-6-6-|
D -6-6-6-6-6-6-6-6-\-4-4-4-4-4-4-4-4--4-4-4-4-4-4-4-4-/-7-7-7-7-7-7-7-7-|
A -4-4-4-4-4-4-4-4-\-2-2-2-2-2-2-2-2--4-4-4-4-4-4-4-4-/-7-7-7-7-7-7-7-7-|
E ------------------------------------2-2-2-2-2-2-2-2-/-5-5-5-5-5-5-5-5-|

   C#m               Bm               F#                A
E -4-4-4-4-4-4-4-4-\-2-2-2-2-2-2-2-2--2-2-2-2-2-2-2-2-/-5-5-5-5-5-5-5-5-|
B -5-5-5-5-5-5-5-5-\-3-3-3-3-3-3-3-3--2-2-2-2-2-2-2-2-/-5-5-5-5-5-5-5-5-|
G -6-6-6-6-6-6-6-6-\-4-4-4-4-4-4-4-4--3-3-3-3-3-3-3-3-/-6-6-6-6-6-6-6-6-|
D -6-6-6-6-6-6-6-6-\-4-4-4-4-4-4-4-4--4-4-4-4-4-4-4-4-/-7-7-7-7-7-7-7-7-|
A -4-4-4-4-4-4-4-4-\-2-2-2-2-2-2-2-2--4-4-4-4-4-4-4-4-/-7-7-7-7-7-7-7-7-|
E ------------------------------------2-2-2-2-2-2-2-2-/-5-5-5-5-5-5-5-5-|

BREAKDOWN:
[ Tab from: http://www.guitaretab.com/m/misc-unsigned-bands/88144.html ]
     F#        A*              E     E7  E    A*    F# p.m.-----------
E ---2---------0---------------0-----0---0----0-----2-------------------|
B ---2---------2----2-3-2------0-----3---0----2-----2-------------------|
G ---3---------2---------------1-----1---1----2-----3-------------------|
D ---4---------2---------------2-----2---2----2-----4-------------------|
A ---4---------0-----------4---2-----2---2----0-----4-------------------|
E ---2----4--------------------0-----0---0----------2--2-2-2-0h2-2-2-2--|


     F#           A*                         E
E ---2------------0--------------------------0--------------------------|
B ---2------------2----2-3-5-3-2h3p2---------0-----3---3---3---3--------|
G ---3------------2--------------------------1-------1---1---1---1------|
D ---4------------2--------------------------2--------------------------|
A ---4------------0--------------------4-----2--------------------------|
E ---2------4--------------------------------0--------------------------|

CHORUS/OUTRO: 

   C#m               Bm               F#                A
E -4-4-4-4-4-4-4-4-\-2-2-2-2-2-2-2-2--2-2-2-2-2-2-2-2-/-5-5-5-5-5-5-5-5-|
B -5-5-5-5-5-5-5-5-\-3-3-3-3-3-3-3-3--2-2-2-2-2-2-2-2-/-5-5-5-5-5-5-5-5-|
G -6-6-6-6-6-6-6-6-\-4-4-4-4-4-4-4-4--3-3-3-3-3-3-3-3-/-6-6-6-6-6-6-6-6-|
D -6-6-6-6-6-6-6-6-\-4-4-4-4-4-4-4-4--4-4-4-4-4-4-4-4-/-7-7-7-7-7-7-7-7-|
A -4-4-4-4-4-4-4-4-\-2-2-2-2-2-2-2-2--4-4-4-4-4-4-4-4-/-7-7-7-7-7-7-7-7-|
E ------------------------------------2-2-2-2-2-2-2-2-/-5-5-5-5-5-5-5-5-|

   C#m               Bm               F#                A
E -4-4-4-4-4-4-4-4-\-2-2-2-2-2-2-2-2--2-2-2-2-2-2-2-2-/-5-5-5-5-5-5-5-5-|
B -5-5-5-5-5-5-5-5-\-3-3-3-3-3-3-3-3--2-2-2-2-2-2-2-2-/-5-5-5-5-5-5-5-5-|
G -6-6-6-6-6-6-6-6-\-4-4-4-4-4-4-4-4--3-3-3-3-3-3-3-3-/-6-6-6-6-6-6-6-6-|
D -6-6-6-6-6-6-6-6-\-4-4-4-4-4-4-4-4--4-4-4-4-4-4-4-4-/-7-7-7-7-7-7-7-7-|
A -4-4-4-4-4-4-4-4-\-2-2-2-2-2-2-2-2--4-4-4-4-4-4-4-4-/-7-7-7-7-7-7-7-7-|
E ------------------------------------2-2-2-2-2-2-2-2-/-5-5-5-5-5-5-5-5-|

   A                                   Ab                  F#
E -5-5-5-5-5-5-5-5-5-5-5-5-5-5-5-5--\--4-4-4-4-4-4-4-4--\--2------------|
B -5-5-5-5-5-5-5-5-5-5-5-5-5-5-5-5--\--5-5-5-5-5-5-5-5--\--2------------|
G -6-6-6-6-6-6-6-6-6-6-6-6-6-6-6-6--\--5-5-5-5-5-5-5-5--\--3------------|
D -7-7-7-7-7-7-7-7-7-7-7-7-7-7-7-7--\--6-6-6-6-6-6-6-6--\--4------------|
A -7-7-7-7-7-7-7-7-7-7-7-7-7-7-7-7--\--6-6-6-6-6-6-6-6--\--4------------|
E -5-5-5-5-5-5-5-5-5-5-5-5-5-5-5-5--\--4-4-4-4-4-4-4-4--\--2------------|

STRUCTURE:

INTRO     X4
VERSE     X3
CHORUS    X4
VERSE     X3
CHORUS    X4
BREAKDOWN X4
CHORUS    X4
OUTRO     X1

LYRICS:

       Spend a penny or spend a pound how much to get your knickers down,
       Get your knickers down,
       Iíve seen you slag it about the bars or flash it to the boys in cars,
       The boys in cars,
       Fire in your eyes and in your hair you acted like I wasnít there,
       Like I wasnít there,


       Pennies make pounds,
       But not pound Penny,
       Pound for a penny,
       You wonít get any,
       Pennies make pounds,
       But not pound Penny,
       Pound for a penny,
       You wonít get any,

       Had so much you shat out notes not of mine of other blokes,
       All those other blokes,
       Then you started to take the piss taking things that I would miss,
       Things that I would miss,
       Not even a text id have to call professed you love above it all,
       Above it all,

       Pennies make pounds,
       But not pound Penny,
       Pound for a penny,
       You wonít get any,
       Pennies make pounds,
       But not pound Penny,
       Pound for a penny,
       You wonít get any,

       So you search your wallet, for dribs and drabs
       So you search your wallet, for dribs and drabs

       Pennies make pounds,
       But not pound Penny,
       Pound for a penny,
       You wonít get any,
       Pennies make pounds,
       But not pound Penny,
       Pound for a penny,
       You wonít get any.


| /    slide up
| \    slide down
| h    hammer-on
| p    pull-off
| p.m  parm-mute
| ~    vibrato
| +    harmonic
| x    Mute note
Related for The Winchesters - Penny tab