Song name
# A B C D E F G H I J K L M N O P Q R S T U V W X Y Z

Misc Unsigned Bands - Etcetera - Crackhead tab

-------------------------------------------------------------------------------
			     Crackhead - Etcetera
-------------------------------------------------------------------------------
Tabbed by:Stratmaster100

Tuning:standard

This bands web site is www.etcmusic.piczo.com
VERSE:
   A               G               D               C#
e|---------------------------------------------------------------------------|
B|---------------------------------7-7-8-7-7-7-8-7-6-6-6-66------------------|
G|-6-6-6-6-6-6-6-6-4-4-4-4-4-4-4-4-7-7-7-7-7-7-7-7-6-6-6-66------------------|
D|-7-7-7-7-7-7-7-7-5-5-5-5-5-5-5-5-7-7-7-7-7-7-7-7-6-6-6-66------------------|x2
A|-7-7-9-7-7-7-9-7-5-5-7-5-5-5-7-5-5-5-5-5-5-5-5-5-4-4-4-44------------------|
E|-5-5-5-5-5-5-5-5-3-3-3-3-3-3-3-3-------------------------------------------|

CHORUS:
   A               C               D               G#  A
e|---------------------------------------------------------------------------|
B|-----------------5-5-5-5-5-5-5-5-7-7-7-7-7-7-7-7---------------------------|
G|-6-6-6-6-6-6-6-6-5-5-5-5-5-5-5-5-7-7-7-7-7-7-7-7-5-5-6-66------------------|
D|-7-7-7-7-7-7-7-7-5-5-5-5-5-5-5-5-7-7-7-7-7-7-7-7-6-6-7-77------------------|x2
A|-7-7-7-7-7-7-7-7-3-3-3-3-3-3-3-3-5-5-5-5-5-5-5-5-6-6-7-77------------------|
E|-5-5-5-5-5-5-5-5---------------------------------4-4-5-55------------------|

OUTRO:

e|-5-3-------3-5/8-6-------6-8/10-8----------8\5-x-4-2-----------------------|
B|----5-3-3-5-------8-6-6-8--------10-8--8-10---------4-2--------------------|
G|-------5-------------8---------------10----------------4-2~----------------|
D|---------------------------------------------------------------------------|
A|---------------------------------------------------------------------------|
E|---------------------------------------------------------------------------|

e|-5-3-------3-5/8-6-------6-8/10-8--------15///tr-15~-----------------------|
B|----5-3-3-5-------8-6-6-8--------10-8--8-----------------------------------|
G|-------5-------------8---------------10------------------------------------|
D|---------------------------------------------------------------------------|
A|---------------------------------------------------------------------------|
E|---------------------------------------------------------------------------|

 *with wah pedal on:
  rapidly progress in speed
e|-5p3h5p3h5p3h5p3h5p3h5p3h5p3h5p3h5p3h5p3h5p3-------------------------------|
B|---------------------------------------------------------------------------|
G|---------------------------------------------------------------------------|
D|---------------------------------------------------------------------------|
A|---------------------------------------------------------------------------|
E|---------------------------------------------------------------------------|

e|-----------------------------------------------------------------------------------|
B|-----------------------------------------------------------------------------------|
G|-----------------------------------------------------------------------------------|
D|-6/7-7-7~--------------------------------------------------------------------------|
A|-6/7-7-7~--------------------------------------------------------------------------|
E|-4/5-5-5~--------------------------------------------------------------------------|

| //tr tremolo picking
| /    slide up
| \    slide down
| h    hammer-on
| p    pull-off
| ~    vibrato
| +    harmonic
| x    Mute note
===============================================================================
Tap to rate this tab
 
# A B C D E F G H I J K L M N O P Q R S T U V W X Y Z