Song name
# A B C D E F G H I J K L M N O P Q R S T U V W X Y Z

Misc Unsigned Bands - Excerptfromspeech - Lovers And Butterflies tab

e|------------------------------------------------------------------|
B|------------------------------------------------------------------|
G|---9-10-12-10-9-10-12-10-9-----10-10-9-10-12-10-9-10-12-----------|
d|-0--------------------------8-------------------------------------|
a|-0--------------------------8-------------------------------------|
D|-0--------------------------8-------------------------------------|

e|------------------------------------------------------------------|
B|--------------13--------------------------------------------------|
G|---10-10-9-10---10-9-9-10-----10-10-9-10-12-10-9-9-10-------------|
d|-0--------------------------8-------------------------------------|
a|-0--------------------------8-------------------------------------|
D|-0--------------------------8-------------------------------------|

e|------------------------------------------------------------------|
B|------------------------------------------------------------------|
G|----101010999121212121212-----101010999121212121212---------------|
d|-0--------------------------8-------------------------------------|
a|-0--------------------------8-------------------------------------|
D|-0--------------------------8-------------------------------------|

e|---------------------------------------131313131313---------------|
B|-------------131313131313-----------------------------------------|
G|----101010999-----------------101010999---------------------------|
d|-0--------------------------8-------------------------------------|
a|-0--------------------------8-------------------------------------|
D|-0--------------------------8-------------------------------------|

e|--------|---------------------------------------------------------|
B|--------|---------------------------------------------------------|
G|--------|------10101010----------5555--------10101010--------5555-|
d|--12/0--|-0000-------------0000---------0000------------0000------|
a|--12/0--|-0000-8-8-8-8-----0000--3333---0000-8-8-8-8----0000-3333-|
D|--12/0--|-0000-------------0000---------0000---------- -0000------|

e|------------------------------------------------------------------|
B|------------------------------------------------------------------|
G|------------10/121212---------5555--------10101010--------5/7\5---|
d|-------0000-------------0000---------0000------------0000-------0~|
a|-------0000--8/101010---0000--3333---0000-8-8-8-8----0000-3/5\3-0~|
D|-------0000-------------0000---------0000------------0000-------0~|





Tap to rate this tab
# A B C D E F G H I J K L M N O P Q R S T U V W X Y Z