Song name
# A B C D E F G H I J K L M N O P Q R S T U V W X Y Z

Misc Unsigned Bands - Decastich - Twice Denied Thrice Defied tab

                          riff 1.

-0-753-00-7532--------------------------------|
----------------------------------------------|  x2
----------------------------------------------|
----------------------------------------------|
----------------------------------------------|
----------------------------------------------|

                           riff 2.

-0-753--00-7535----------------------------------------|
-------------------------------------------------------|
-------------------------------------------------------|
-------------------------------------------------------| x3
-------------------------------------------------------|
-------------------------------------------------------|

                           solo

------12--------19---------------9-9-9-----------------------|
17;14-------17-------------------9-9-9-----------------------|
---------21----------------------9-9-9-----------------------|
-------------------16;9--------------------------------------|
-------------------------------------------------------------|
-------------------------------------------------------------|

                      and thats it!!heres the order of riffs:

   riff 1
   riff 2
   riff 1 x2
   solo
   riff 1
   riff 2
Tap to rate this tab
# A B C D E F G H I J K L M N O P Q R S T U V W X Y Z