Song name
# A B C D E F G H I J K L M N O P Q R S T U V W X Y Z

Misc Unsigned Bands - Dicks In The Sun - Bird Turd tab

Bird turd

standard tuning

intro verse
|--------------------------------|
|--------------------------------|
|--------------------------------|
|--------------------------------|
|-3/4-4-0-3-5-3-4-2-0--3-4-2-2-x-|
|-1/2-3-0-1-3-1-2-0-0--1-2-0-2-x-|

chorus
|---------------------------|
|---------------------------|
|---------------------------|
|-3-5-----4-0-----4-2-3-3---|
|-1-3-4-4-2-0-2-3-2-0-1-1-0-|
|-----2-2-----0-1---------0-|

Tap to rate this tab
# A B C D E F G H I J K L M N O P Q R S T U V W X Y Z