Song name
# A B C D E F G H I J K L M N O P Q R S T U V W X Y Z

Misc Unsigned Bands - Projekt Ex - The Truth About High School tab

Projekt Ex
The Truth About High School
Website at www.projektex/myspace.com
Tabbed By: Panda


Intro/Bridge:
e-------------------------------------------------------------|
B-------------------------------------------------------------|
G-7777777777777777--/12\---9999999999999999---/-12\--14-------|
D------------------/----\--------------------/-----\----16x---|
A-5555555555555555/--10--\-7777777777777777-/---10--\12-------|
E-------------------------------------------------------------|

Verse:
e-----------------------------|
B-----------------------------|
G-7---------------------------|
D---16x-7-----9------5--------|
A-5-------16x---16x----16x----|
E-------5-----7------3--------|

Chorus:
e--------------------------------------------------------|
B--------------------------------------------------------|
G-7-----9------------------7------9----------------------|
D-7-16x-9-16x-7-----9------7--16x-9-16x-7-----5----------|
A-5-----7-----7-16x-9-16x--5------7-----7-16x-5-16x------|
E-------------5-----7-------------------5-----3----------|

Song Order:

Intro/Bridge    1x
Verse           2x
Chorus          1x
Intro/Bridge    1x
Verse           2x
Chorus          1x
Tap to rate this tab
# A B C D E F G H I J K L M N O P Q R S T U V W X Y Z