Song name
# A B C D E F G H I J K L M N O P Q R S T U V W X Y Z

Misc Unsigned Bands - Projekt Ex - Why Should I tab

Projekt Ex
Why Should I?
Website at www.projektex/myspace.com
Tabbed By: Panda

Verse:
e-----------------------|
B-----------------------|
G-----------------------|
D-------------5---------|
A-5-----7-----3--16x----|
E-3-8x--5-8x------------|

Chorus:
e-----------------------|
B-----------------------|
G------7----9----5------|
D-5----7-8x-9-8x-5-8x---|
A-5-8x-5----7----3------|
E-3---------------------|

HOnestly i don't know how to do the little solo thing chord mabobber but my guitarist 
and i'll get him to tab it for you guys...

Song Order:
Verse:  5x
Chorus: 4x
Verse:  4x
Chorus: 4x
Solo Thingy
Chorus: 4x
Tap to rate this tab
# A B C D E F G H I J K L M N O P Q R S T U V W X Y Z