Song name
# A B C D E F G H I J K L M N O P Q R S T U V W X Y Z

Misc Unsigned Bands - Glimpse Of Darkness - Signature tab

Intro

eb-----------------------------|
bb-----------------------------|
gb--0--0---0--0---0--0---0--0--|
Db--9-9-9--7-7-7--5-5-5--5-5-5-|
Ab--7------5------3------3-----|
Eb-----------------------------|

eb--------------------------------------------|
bb--------------------------------------------|
gb--0--0---0--0---0--0---0--0---0--0---0--0---|
Db--9-9-9--7-7-7--5-5-5--5-5-5--5-5-5--5-5-5--|
Ab--7------5------3------3------3------3------|
Eb--------------------------------------------|

eb--------------------------------------------|
bb--------------------------------------------|
gb----0----0----0----0----0----0----0----0----|
Db---4-4--4-4--4-4--4-4--4-4--4-4--4-4--4-4---|
Ab--2----2----2----2----0----0----0----0----0-|  repeat 1x
Eb--------------------------------------------|

eb--------------------------------------------|
bb--------------------------------------------|
gb----0----0----0----0----0----0----0----0----|
Db---4-4--4-4--4-4--4-4--4-4--4-4--4-4--4-4---|
Ab----------------------0----0----0----0----0-|  repeat 1x
Eb--3----3----3----3--------------------------|

eb--------------------------------------------|
bb--------------------------------------------|
gb----4----4----4----4----4----4----4----4----|
Db---4-4--4-4--4-4--4-4--4-4--4-4--4-4--4-4---|
Ab--2----0---------0----2----0----3----2------|  repeat 1x
Eb------------3-------------------------------|

pre-chorus
(after 2nd time a second guitar joins in and
continues play pre-chorus during the chorus)

eb--------------------------------------------|
bb--------------------------------------------|
gb--4-4-4-4--4-4-4-4--4-4-4-4--4-4-4-4--------|
Db--4-4-4-4--4-4-4-4--4-4-4-4--4-4-4-4--------|
Ab--2-2-2-2--3-3-3-3--0-0-0-0--2-2-2-2--------|  repeat 4x
Eb--0-0-0-0--3-3-3-3--0-0-0-0--0-0-0-0--------|

Chorus

eb--------------------------------------------|
bb--------------------------------------------|
gb--------------------------------------------|
Db--9-9--10-10-10-10-10--7-7-x-9-9-9-9-9------|
Ab--9-9--10-10-10-10-10--7-7-x-9-9-9-9-9------|  repeat 4x
Eb--7-7---8--8--8--8--8--5-5-x-7-7-7-7-7------|


Verse

eb--------------------------------------------|
bb--------------------------------------------|
gb----4----4----4----4----4----4----4----4----|
Db---4-4--4-4--4-4--4-4--4-4--4-4--4-4--4-4---|
Ab--2----0---------0----2----0----3----2------|  repeat 4x
Eb------------3-------------------------------|

pre-chorus
(same as above)

eb--------------------------------------------|
bb--------------------------------------------|
gb--4-4-4-4--4-4-4-4--4-4-4-4--4-4-4-4--------|
Db--4-4-4-4--4-4-4-4--4-4-4-4--4-4-4-4--------|
Ab--2-2-2-2--3-3-3-3--0-0-0-0--2-2-2-2--------|  repeat 4x
Eb--0-0-0-0--3-3-3-3--0-0-0-0--0-0-0-0--------|

Chorus

eb--------------------------------------------|
bb--------------------------------------------|
gb--------------------------------------------|
Db--9-9--10-10-10-10-10--7-7-x-9-9-9-9-9------|
Ab--9-9--10-10-10-10-10--7-7-x-9-9-9-9-9------|  repeat 4x
Eb--7-7---8--8--8--8--8--5-5-x-7-7-7-7-7------|

pre-verse

eb-----------------------|
bb-----------------------|
gb----0----0----0----0---|
Db---4-4--4-4--4-4--4-4--|
Ab--2----2----2----2-----|
Eb-----------------------|

Verse

eb--------------------------------------------|
bb--------------------------------------------|
gb----4----4----4----4----4----4----4----4----|
Db---4-4--4-4--4-4--4-4--4-4--4-4--4-4--4-4---|
Ab--2----0---------0----2----0----3----2------|  repeat 4x
Eb------------3-------------------------------|

Bridge

eb--------------------------------------------|
bb--------------------------------------------|
gb--4-4-4-4--4-4-4-4--4-4-4-4--4-4-4-4--x-----|
Db--4-4-4-4--4-4-4-4--4-4-4-4--4-4-4-4--x-----|
Ab--2-2-2-2--3-3-3-3--0-0-0-0--2-2-2-2--x-----|  repeat 1x
Eb--0-0-0-0--3-3-3-3--0-0-0-0--0-0-0-0--x-----|

eb-------------------|
bb-----0------0------|
gb----0-0----0-0-----|
Db---4---4--4---4----|  repeat 4x
Ab--2----------------|
Eb---------3---------|

Chorus

(guitar 1)

eb--------------------------------------------|
bb--------------------------------------------|
gb--------------------------------------------|
Db--9-9--10-10-10-10-10--7-7-x-9-9-9-9-9------|
Ab--9-9--10-10-10-10-10--7-7-x-9-9-9-9-9------|  repeat 8x
Eb--7-7---8--8--8--8--8--5-5-x-7-7-7-7-7------|

(guitar 2)

eb--------------------------------------------|
bb--------------------------------------------|
gb--4-4-4-4--4-4-4-4--4-4-4-4--4-4-4-4--------|
Db--4-4-4-4--4-4-4-4--4-4-4-4--4-4-4-4--------|
Ab--2-2-2-2--3-3-3-3--0-0-0-0--2-2-2-2--------|  repeat 8x
Eb--0-0-0-0--3-3-3-3--0-0-0-0--0-0-0-0--------|

(guitar 3)

eb--------------------------------------------|
bb--------------------------------------------|
gb----4----4----4----4----4----4----4----4----|
Db---4-4--4-4--4-4--4-4--4-4--4-4--4-4--4-4---|
Ab--2----0---------0----2----0----3----2------|  repeat 4x
Eb------------3-------------------------------|

Outro

eb--------------------------------------------|
bb--------------------------------------------|
gb----0----0----0----0----0----0----0----0----|
Db---4-4--4-4--4-4--4-4--4-4--4-4--4-4--4-4---|
Ab--2----2----2----2----0----0----0----0----0-|  repeat 1x
Eb--------------------------------------------|

eb--------------------------------------------|
bb--------------------------------------------|
gb----0----0----0----0----0----0----0----0----|
Db---4-4--4-4--4-4--4-4--4-4--4-4--4-4--4-4---|
Ab----------------------0----0----0----0----0-|  repeat 1x
Eb--3----3----3----3--------------------------|


Alright! there it is! I heard these guys play this song a while back
it's kind of slow but I like, and if you don't then I guess you don't.
Tap to rate this tab
# A B C D E F G H I J K L M N O P Q R S T U V W X Y Z