Song name
# A B C D E F G H I J K L M N O P Q R S T U V W X Y Z

Misc Unsigned Bands - Red Day - Neutrala Ankor tab

http://www.reddaymusic.tk/



Intro/Verse (Acoustic)

-----------------
-----------------
-----------------   >Repeat
----------------- 
----0-0----0-0---
--0------0-------

then

(Figure out the exact palm muting)
---------4----
------3-------
--------0-----  Repeat
---0----------
--3-----------
------2----0--

Chorus:

(En gås)

(Distortion guitar)


---------------------------------------------------------------
---------------------------------------------------------------
---------------------------------------------------------------
--/4-4-4-4-4--6-6-6-6-6--9-9-9--7-7-7--5-5-5--3-3-3--2-2-2-2---
--/4-4-4-4-4--6-6-6-6-6--9-9-9--7-7-7--5-5-5--3-3-3--2-2-2-2---
--/2-2-2-2-2--4-4-4-4-4--7-7-7--5-5-5--3-3-3--2-2-2--0-0-0-0---

----------------------------------------------------------
----------------------------------------------------------
----------------------------------------------------------
--7-7-7--5-5-5--4-4-4--2-2-2----2-2------2-2------2-2-----
--7-7-7--5-5-5--4-4-4--2-2-2----2-2------2-2------2-2-----
--5-5-5--3-3-3--2-2-2--0-0-0----0-0------0-0------0-0-----


Verse II:

--------------------------------------------------------
--------------------------------------------------------
------------6-6-6-6-------------------------------------
--6-6-6-6---7-7-7-7--4-4-4-4-4-2-2-2-2--6-6-6-6--7-7-7--
--6-6-6-6---7-7-7-7--4-4-4-4-4-2-2-2-2--6-6-6-6--7-7-7--
--4-4-4-4---5-5-5-5--2-2-2-2-2-0-0-0-0--4-4-4-4--5-5-5--




Song order:

Intro/Verse
Chorus
Verse II
Chorus
Intro (Very first part) (Outro)
Tap to rate this tab
# A B C D E F G H I J K L M N O P Q R S T U V W X Y Z