Guitaretab - guitar tabs
Song name
# A B C D E F G H I J K L M N O P Q R S T U V W X Y Z

Misc Unsigned Bands - Amp - Untitled tab

A.M.P - Untitled

so far this is just the intro. I'm pretty sure this is right beause i watched them play 
in concert.Any question or comments contact me at you_me_and_that_guy_over_there@hotmail.com


Intro:

E-------------------------------------------------------------|
B-------------------------------------------------------------|
G-------------------------------------------------------------|
D--55------------33------------77-------------5555--4444------|
A--55--5-6-5-0-5-33--5-6-5-0-5-77--5-6-5-0-5--5555-4444------|
E--55------------33------------77-------------3333--2222------|

e-------------------------------------------------------------|
B-------------------------------------------------------------|
G-------------------------------------------------------------|
D--55------------33------------77-------------5555--4444------|
A--55--5-6-5-0-5-33--5-6-5-0-5-77--5-6-5-0-5--5555-4444------|
E--55------------33------------77-------------3333--2222------|

e-------------------------------------------------------------|
B-------------------------------------------------------------|
G-------------------------------------------------------------|
D--5-5--------7--3-3--------7--77--------7----5555--4444------|
A--5-5--5-6-5----3-3--5-6-5----77--5-6-5------5555--4444------|
E--5-5-----------3-3-----------77-------------3333--2222------|


e-----------------------------------------|------------------- |
B-----------------------------------------|------------------- |
G-------------7-------------7------------7|------------------- |
D--5-5--------7--3-3--------7--77--------7|-5-5------3-3------ |
A--5-5--5-6-5----3-3--5-6-5----77--5-6-5--|-5-55-6--3-3-5-6-- |
E--5-5-----------3-3-----------77---------|-5-5------3-3------ |
                                          |_ _ _ _ _ _ _ _ _ _ |
                                                     |
                Play x4  <---------------------------|
                Then
          e--------------------|
          B--------------------|
          G--------------------|
          D--5-~~~-------------|
          A--5-~~~-------------|
          E--5-~~~-------------|


e-------------------------------------------------------------|
B-------------------------------------------------------------|
G-------------------------------------------------------------|
D-------------------------------------------------------------|
A-------------------------------------------------------------|
E--55555555-3333-2222-00---55555555-3333-2222-00--------------|

[ Tab from: http://www.guitaretab.com/m/misc-unsigned-bands/88439.html ]
e-------------------------------------------------------------|
B-------------------------------------------------------------|
G-------------------------------------------------------------|
D-------------------------------------------------------------|
A--55555555----------------55555555---------------------------|
E--55555555-3333-2222-00---55555555-3333-2222-00--------------|

e-------------------------------------------------------------|
B-------------------------------------------------------------|
G-------------------------------------------------------------|
D-------------------------------------------------------------|
A--55555555-33333333-22222222-00000000------------------------|
E--55555555-33333333-22222222-00000000------------------------|

e-------------------------------------------------------------|
B-------------------------------------------------------------|
G---------------------------3333------------------------------|
D-----5-----5----5----5-----3333------------------------------|
A--2--5---25--25--25--2--3333------------------------------|
E--0------0----0----0----0------------------------------------|
|                                                            |
|_ _ _ _ _ _ _ _ _ _ _ _ _ _ _ _ _ _ _ _ _ _ _ _ _ _ _ _ _ _ |
                               |
                             Play x4 on second
                              time through,
                            Guitar 2 joins in.


e-------------------------------------------------------------|
B-------------------------------------------------------------|
G-------------------------------------------------------------|
D-------------------------------------------------------------|
A--2----555---777777--2---555---999999--2---555---777---------|
E--0-0--333-0-555555--0-0-333-0-777777--0-0-333-0-555---------|

e-------------------------------------------------------------|
B-------------------------------------------------------------|
G-------------------------------------------------------------|
D-------------------------------------------------------------|
A--2---555---222222-222222-111--------------------------------|
E--0-0-333-0-111111-000000-111--------------------------------|


e-------------------------------------------------------------|
B-------------------------------------------------------------|
G-------------------------------------------------------------|
D-------------------------------------------------------------|
A-------------------------------------------------------------|
E-------------------------------------------------------------|
Related for Amp - Untitled tab