Song name
# A B C D E F G H I J K L M N O P Q R S T U V W X Y Z

Misc Unsigned Bands - Asperity - Youre A Natural tab

Help us improve GuitareTab! Take a short survey!
p = pulloff
/ = slide
h = hammer
~ = let ring


*Guitar 1*

Intro x6
E-----------------------------------------------------------------------|
B-----------------------------------------------------------------------|
G---10-9-10-12-10-9h10-10----10-9-10-12-10-9h10-10----------------------|
D-00--0-0--0--0--0---------88--8-8--8--8--8-----------------------------|
A-----------------------------------------------------------------------|
D-----------------------------------------------------------------------|

*Guitar 2*

Intro x3
E-x--------x--------x--------x----------------------------------------|
B-x--------x--------x--------x----------------------------------------|
G-x--------x--------x--------x----------------------------------------|
D-0~~~-----8~~~-----0~~~-----8~~~-------------------------------------|
A-0~~~-----8~~~-----0~~~-----8~~~-------------------------------------|
D-0~~~-----8~~~-----0~~~-----8~~~-------------------------------------|
Related for Asperity - Youre A Natural tab