Song name
# A B C D E F G H I J K L M N O P Q R S T U V W X Y Z

Misc Unsigned Bands - Method 68 - Money Tree tab

this is new song Money Tree wrote by Ryan Laing

Instruments: (Microphone, Lead Guitar, 3rd Guitar, Rhythm Guitar), (Bass Guitar), (Drums)

. = Palm mute

Intro (Gtr 1)

[------------------------------2222222222222---]
[------------------------------3333333333333---]
[------------5--5--5-----------2222222222222---]
[---7--7--7--55555555-5--5--5--0000000000000---]
[---77777777-33333333-55555555-----------------]
[---55555555----------33333333-----------------]
     .. .. .  .. .. .  .. .. . 

Verse (Gtr 1)

[--------------------------------------------] [--------]
[--------------------------------------------] [--------]
[--------------------------------------------] [--------]
[------------444444444-----------------------] [--------]
[---7--7--7--222222222-7--7--7--55555555555--] [-5~--5~-]
[---55555555-----------55555555-33333333333--] [-2~--3~-]
    ........           ........

Chorus (Gtr 1 & 2)
                                    1.         2.
[---------------------------------][-2222222-][---------------]
[---222222222---------------------][-3333333-][-4444444444444-]
[---222222222-55555555-444444444--][-2222222-][-4444444444444-]
[---222222222-55555555------------][-0000000-][-4444444444444-]
[---000000000-33333333-555555555--][---------][-2222222222222-]
[----------------------333333333--][---------][---------------]

Interlude (Gtr 1)

[----5--5/3---3--3---3--3--5--5-5/4/3p0---]
[-----------------------------------------]
[-----------------------------------------]
[---------------------------00------------]
[-----00---0h3-33-30----------------------]
[---5---------------3-33/10---------------]

(Gtr 2) Arpeggio these chords: A, C, G, D, A, C, G, B

Solo (Gtr 1)

[-----------------------------------------------]
[-----------------------------------------------]
[------------77777777-----------121212121212----]
[---77777777----------55555555------------------]
[------------33333333-----------101010101010----]
[---55555555----------33333333------------------]

[-------------------------------------------------]
[-------------118--8v-----------------------------]
[---7(7)5-5------10------3-3--------10--10--12v---]
[--------7--------------5-5-53v---12--12--12------]
[-------------------------------------------------]
[-------------------------------------------------]

(Gtr 2) Plays Chorus

(Gtr 3) when Guitar 1 finishes Octave chords Gtr 3 carries on with

[--------------------------------------------------]
[--------------------------------------------------]
[---7777777-101010101010-55555555-12121212121212---]
[--------------------------------------------------]
[---5555555-8-8-8-8-8-8--33333333-10101010101010---]
[--------------------------------------------------]

Outro (Gtr 1) 

[----------------------33333333-22222222---------------------------------]
[---222222222-55555555-33333333-33333333------22--2~--/--15-17-18--17v~--]
[---222222222-55555555-00000000-22222222----22--2-2~-/---15-17-17--17v~--]
[---222222222-55555555-00000000-00000000--22------2~--/--15-17-19--17v~--]
[---000000000-33333333-------------------0--------0~-/----0--0--0---0----]
[----------------------33333333------------------------------------------]

Order:

Intro
Verse
Chorus 
Verse
Chorus
Interlude 
Solo
Interlude
Verse
Chorus
Outro

Oh! can i have this, 
Oh! can i have that,
I'll tell you somthin'
You little Brat!

You think I have a money tree,
Too spend on your hair needs,
Sparkly, Glittery, Shiny Things,
Don't Forget Diamond Rings

Well you can dream on,
'Cos i will tell you somethin'
I have had it upto here,
with your constant Whinin'

You think I have a money tree,
Too spend on your hair needs,
Sparkly, Glittery, Shiny Things,
Don't Forget Diamond Rings

Oh! can i have this, 
Oh! can i have that,
I'll tell you somthin'
You little Brat!

You think I have a money tree,
Too spend on your hair needs,
Sparkly, Glittery, Shiny Things,
Don't Forget Diamond Rings

There 97.86% correct.







Tap to rate this tab
# A B C D E F G H I J K L M N O P Q R S T U V W X Y Z