Song name
# A B C D E F G H I J K L M N O P Q R S T U V W X Y Z

Misc Unsigned Bands - Willzyx Revolution - It Wasnt Funny tab

Normal tuning

intro 1x
e-----------------------------------|
B-----------------------------------|
G-----------4--4--4--4--------------|
D--4--4--0--4--4--4--4--0--4--4--0--|
A--4--4--0--2--2--2--2--0--4--4--0--|
E--2--2--0--------------0--2--2--0--|

verse 5x
e-----------------------------|
B-----------------------------|
G-----------4--4--------------|
D--4--4--0--4--4--0--4--4--0--|
A--4--4--0--2--2--0--4--4--0--|
E--2--2--0--------0--2--2--0--|

Chorus 3x
e--------------------------------------|
B--------------------------------------|
G--------------------------------------|
D--4--4--0--5--5--0--4--4--0--5--5--5--|
A--4--4--0--5--5--0--4--4--0--5--5--5--|
E--2--2--0--3--3--0--2--2--0--3--3--3--|

verse 5x
e-----------------------------|
B-----------------------------|
G-----------4--4--------------|
D--4--4--0--4--4--0--4--4--0--|
A--4--4--0--2--2--0--4--4--0--|
E--2--2--0--------0--2--2--0--|

Chorus 3x
e--------------------------------------|
B--------------------------------------|
G--------------------------------------|
D--4--4--0--5--5--0--4--4--0--5--5--5--|
A--4--4--0--5--5--0--4--4--0--5--5--5--|
E--2--2--0--3--3--0--2--2--0--3--3--3--|

solo 3x
E--------4-------5--------0--------4----------5-----5--|
B-----0-------0--------5--------0--------0-------0-----|
G--2--------3-------0--------2--------3-----5----------|
D------------------------------------------------------|
A------------------------------------------------------|
E------------------------------------------------------|

Chorus 3x
e--------------------------------------|
B--------------------------------------|
G--------------------------------------|
D--4--4--0--5--5--0--4--4--0--5--5--5--|
A--4--4--0--5--5--0--4--4--0--5--5--5--|
E--2--2--0--3--3--0--2--2--0--3--3--3--|

End With
e-----
B-----
G-----
D--0--
A--0--
E--0--
Tap to rate this tab
# A B C D E F G H I J K L M N O P Q R S T U V W X Y Z