Guitaretab - guitar tabs
Song name
# A B C D E F G H I J K L M N O P Q R S T U V W X Y Z

Misc Unsigned Bands - Eyescream - My Fears tab

MY FEARS by eyescrem

TABBER: JORENN DEL MUNDO
DATE: MAY 5, 2007

What's up all of you. I am sure that no one has tabbed out this solo yet, so I
will. This tab is 100% perfect, I am sure of it. I hope you enjoy!! Any comments
or Questions, email me at JORENN_08@ROCKISTA.COM

Good Luck with it, it's really hard


INTRO (2 TIMES)

e---------------------------|----------------------------------|
b--------------4-----------|--------------4--------------------|
g---------5--------3----5-|----------5------3------5-----------|
d----3---------------------|-----------------------------------|
a---------------------------|------4---------------------------|
e---------------------------|----------------------------------|

e--------------------------|------------------------------------|
b------------4------------|------------------------4------------|
g--------5----------------|---------3------5--------------------|
d----6--------------------|-------------------------------------|
a--------------------------|------------------------------------|
e--------------------------|------------------------------------|

RHYTYM PART (INTRO)

e---------------------------------------------------------------|
b---------------------------------------------------------------|
g-------------SIX TIMES (FASTER)--------------------------------|
d---7-----------------------------------------------------------|
a---7-----------------------------------------------------------|
e---6-----------------------------------------------------------|

e---------------------------------------------------------------|
b---------------------------------------------------------------|
g---10-10-10--------8--8--8----------6--6--6--6--6--6-----------|
d---10-10-10--------8--8--8----------6--6--6--6--6--6-----------|
a----8--8--8------- 6--6--6----------4--4--4--4--4--4-----------|
e---------------------------------------------------------------|

LEAD PART (INTRO)

e--------------------------------------------------------------|
b--4------------4--------------6--------------4----------------|
g----5--3--5-------5--3--5-------5--3--5------3--5h6p5---------|
d--------------------------------------------------------------|
a--------------------------------------------------------------|
e--------------------------------------------------------------|

e----------------------4-4-4-4--6-6-6-6--9---------------------|
b--4------------6----------------------------------------------|
g------5-3-5---------------------------------------------------|
d--------------------------------------------------------------|
a--------------------------------------------------------------|
e--------------------------------------------------------------|


(VERSE)


e---------------------------------------------------------------|
b---------------------------------------------------------------|
g---10-10-10--------8--8--8----------6--6--6--6--6--6-----------|
d---10-10-10--------8--8--8----------6--6--6--6--6--6-----------|
a----8--8--8------- 6--6--6----------4--4--4--4--4--4-----------|
e---------------------------------------------------------------|

[ Tab from: http://www.guitaretab.com/m/misc-unsigned-bands/88523.html ]
e---------------------------------------------------------------|
b---------------------------------------------------------------|
g---10-10-10--------8--8--8----------6--6--6--6--6--6-----------|
d---10-10-10--------8--8--8----------6--6--6--6--6--6-----------|
a---8--8--8-------- 6--6--6----------4--4--4--4--4--4-----------|
e---------------------------------------------------------------|


e---------------------------------------------------------------|
b---------------------------------------------------------------|
g---10-10-10--------8--8--8----------6--6--6--6--6--6-----------|
d---10-10-10--------8--8--8----------6--6--6--6--6--6-----------|
a---8--8--8-------- 6--6--6----------4--4--4--4--4--4-----------|
e---------------------------------------------------------------|


e---------------------------------------------------------------|
b---------------------------------------------------------------|
g---10-10-10--------8--8--8----------6--6--6--6--6--6-----------|
d---10-10-10--------8--8--8----------6--6--6--6--6--6-----------|
a---8--8--8-------- 6--6--6----------4--4--4--4--4--4-----------|
e---------------------------------------------------------------|


e---------------------------------------------------------------|
b---------------------------------------------------------------|
g--------------6--6--6--6--6--6---------------------------------|
d--------------6--6--6--6--6--6---------------------------------|
a--------------4--4--4--4--4--4---------------------------------|
e---------------------------------------------------------------|


CHORUS

e---------------------------------------------------------------|
b---------------------------------------------------------------|
g---10-10-10--------8--8--8----------6--6--6--6--6--6-----------|
d---10-10-10--------8--8--8----------6--6--6--6--6--6-----------|
a----8--8--8------- 6--6--6----------4--4--4--4--4--4-----------|
e---------------------------------------------------------------|


e---------------------------------------------------------------|
b---------------------------------------------------------------|
g---10-10-10--------8--8--8----------6--6--6--6--6--6-----------|
d---10-10-10--------8--8--8----------6--6--6--6--6--6-----------|
a----8--8--8------- 6--6--6----------4--4--4--4--4--4-----------|
e---------------------------------------------------------------|


e---------------------------------------------------------------|
b---------------------------------------------------------------|
g---10-10-10--------8--8--8----------6--6--6--6--6--6-----------|
d---10-10-10--------8--8--8----------6--6--6--6--6--6-----------|
a----8--8--8------- 6--6--6----------4--4--4--4--4--4-----------|
e---------------------------------------------------------------|


e---------------------------------------------------------------|
b---------------------------------------------------------------|
g---10-10-10--------8--8--8----------6--6--6--6--6--6-----------|
d---10-10-10--------8--8--8----------6--6--6--6--6--6-----------|
a----8--8--8------- 6--6--6----------4--4--4--4--4--4-----------|
e---------------------------------------------------------------|


e---------------------------------------------------------------|
b---------------------------------------------------------------|
g---10-10-10--------8--8--8----------6--6--6--6--6--6-----------|
d---10-10-10--------8--8--8----------6--6--6--6--6--6-----------|
a----8--8--8------- 6--6--6----------4--4--4--4--4--4-----------|
e---------------------------------------------------------------|

REPEAT ONLY THE VERSE AND CHORUS TABS...
PLS RATE MY TAB...
FOR QUESTION CALL:09266835637
Related for Eyescream - My Fears tab